-----------------------------------------------------------------------------
DRIVING NOWHERE - Helmet
-----------------------------------------------------------------------------

Tabbed by an17nin17
Email - [email protected]

Drop D Tuning - D, A, D, G, B, E

Intro/Verse

|---------------------------------|
|-------------|
|-------------|
|-9-9----------9-x-9--------------|
|-9-9----------9-x-9--------------|
|-9-9----------9-x-9--------------|
Play x 16

Chorus

|-----------------------------------------------------------------|
|-8-8-8-8-8-8-8-8-8-8-8-8-8-8-8-8---------------------------------|
|-7-7-7-7-7-7-7-7-7-7-7-7-7-7-7-7---------------------------------|
|-5-5-5-5-5-5-5-5-5-5-5-5-5-5-5-5-0-0-0-0-0-0-0-0-2-2-2-2-2-2-2-2-|
|-5-5-5-5-5-5-5-5-5-5-5-5-5-5-5-5-0-0-0-0-0-0-0-0-2-2-2-2-2-2-2-2-|
|-5-5-5-5-5-5-5-5-5-5-5-5-5-5-5-5-0-0-0-0-0-0-0-0-2-2-2-2-2-2-2-2-|

|---------------------------------|
|-8-8-8-8-8-8-8-8-----------------|
|-7-7-7-7-7-7-7-7-----------------|
|-5-5-5-5-5-5-5-5-0-0-0-0-2-2-2-2-|
|-5-5-5-5-5-5-5-5-0-0-0-0-2-2-2-2-|
|-5-5-5-5-5-5-5-5-0-0-0-0-2-2-2-2-|

|---------------------------------|
|-------------|
|-------------|
|-9-9----------9-x-9--------------|
|-9-9----------9-x-9--------------|
|-9-9----------9-x-9--------------|
Play x 12

|-----------------------------------------------------------------|
|-8-8-8-8-8-8-8-8-8-8-8-8-8-8-8-8---------------------------------|
|-7-7-7-7-7-7-7-7-7-7-7-7-7-7-7-7---------------------------------|
|-5-5-5-5-5-5-5-5-5-5-5-5-5-5-5-5-0-0-0-0-0-0-0-0-2-2-2-2-2-2-2-2-|
|-5-5-5-5-5-5-5-5-5-5-5-5-5-5-5-5-0-0-0-0-0-0-0-0-2-2-2-2-2-2-2-2-|
|-5-5-5-5-5-5-5-5-5-5-5-5-5-5-5-5-0-0-0-0-0-0-0-0-2-2-2-2-2-2-2-2-|

|---------------------------------|
|-8-8-8-8-8-8-8-8-----------------|
|-7-7-7-7-7-7-7-7-----------------|
|-5-5-5-5-5-5-5-5-0-0-0-0-2-2-2-2-|
|-5-5-5-5-5-5-5-5-0-0-0-0-2-2-2-2-|
|-5-5-5-5-5-5-5-5-0-0-0-0-2-2-2-2-|

Middle 8

|---------------------|
|---------------------|
|---------------------|
|-7-9-9-9-0-2-x-5-4-0-|
|-7-9-9-9-0-2-x-5-4-0-|
|-7-9-9-9-0-2-x-5-4-0-|
Play x 12
|-----------------------------------------------------------------|
|-8-8-8-8-8-8-8-8-8-8-8-8-8-8-8-8---------------------------------|
|-7-7-7-7-7-7-7-7-7-7-7-7-7-7-7-7---------------------------------|
|-5-5-5-5-5-5-5-5-5-5-5-5-5-5-5-5-0-0-0-0-0-0-0-0-2-2-2-2-2-2-2-2-|
|-5-5-5-5-5-5-5-5-5-5-5-5-5-5-5-5-0-0-0-0-0-0-0-0-2-2-2-2-2-2-2-2-|
|-5-5-5-5-5-5-5-5-5-5-5-5-5-5-5-5-0-0-0-0-0-0-0-0-2-2-2-2-2-2-2-2-|

|---------------------------------|-------------------------------|
|-8-8-8-8-8-8-8-8-----------------|-121212121212121212121212121212|
|-7-7-7-7-7-7-7-7-----------------|-111111111111111111111111111111|
|-5-5-5-5-5-5-5-5-0-0-0-0-2-2-2-2-|-9-9-9-9-9-9-9-9-9-9-9-9-9-9-9-|
|-5-5-5-5-5-5-5-5-0-0-0-0-2-2-2-2-|-9-9-9-9-9-9-9-9-9-9-9-9-9-9-9-|
|-5-5-5-5-5-5-5-5-0-0-0-0-2-2-2-2-|-9-9-9-9-9-9-9-9-9-9-9-9-9-9-9-|
Play x 3 | Play x 12

Outro

|---------------------|
|---------------------|
|---------------------|
|-7-9-9-9-0-2-x-5-4-0-|
|-7-9-9-9-0-2-x-5-4-0-|
|-7-9-9-9-0-2-x-5-4-0-|
Play x 36

And That's It.




Ваше мнение



Капча