-----------------------------------------------------------------------------
DISAGREEABLE - Helmet
-----------------------------------------------------------------------------
Tabbed by an17nin17
email - [email protected]
Drop D Tuning - D, A, D, G, B, E
Intro
|-6-6-6-6-6-6-6-6-6-6-6-6-|
|-6-6-6-6-6-6-6-6-6-6-6-6-|
|-5-5-5-5-5-5-5-5-5-5-5-5-|
|-3-3-3-3-3-3-3-3-3-3-3-3-|
|-3-3-3-3-3-3-3-3-3-3-3-3-|
|-3-3-3-3-3-3-3-3-3-3-3-3-|
Verse
1,3,5,7| 2,4,6,8|
|------------------------------------|-----------|-----------|
|------------------------------------|-----------|-----------|
|------------------------------------|-----------|-----------|
|-0--3-0-3-5--0--3-0-3-5--0--3-0-3-5-|-0-3-x-x-8-|-0-1-x-x-1-|
|-0--3-0-3-5--0--3-0-3-5--0--3-0-3-5-|-0-3-x-x-8-|-0-1-x-x-1-|
|-0--3-0-3-5--0--3-0-3-5--0--3-0-3-5-|-0-3-x-x-8-|-0-1-x-x-1-|
Chorus
1| 2|
|-8-8-8-8-8-8-3-3-3-3-3-3-|-5-5-5-5-5-5--------------|-6-6-6-6-6-6-|
|-8-8-8-8-8-8-3-3-3-3-3-3-|-5-5-5-5-5-5--------------|-6-6-6-6-6-6-|
|-7-7-7-7-7-7-2-2-2-2-2-2-|-4-4-4-4-4-4--------------|-5-5-5-5-5-5-|
|-5-5-5-5-5-5-0-0-0-0-0-0-|-2-2-2-2-2-2-/8-8-8-8-8-8-|-3-3-3-3-3-3-|
|-5-5-5-5-5-5-0-0-0-0-0-0-|-2-2-2-2-2-2-/8-8-8-8-8-8-|-3-3-3-3-3-3-|
|-5-5-5-5-5-5-0-0-0-0-0-0-|-2-2-2-2-2-2-/8-8-8-8-8-8-|-3-3-3-3-3-3-|
1| 2|
|-----------|------------------------------------|-----------|-4-4-4-4-|
|-----------|------------------------------------|-----------|-4-4-4-4-|
|-----------|------------------------------------|-----------|-3-3-3-3-|
|-0-1-x-x-1-|-0--3-0-3-5--0--3-0-3-5--0--3-0-3-5-|-0-3-x-x-8-|-1-1-1-1-|
|-0-1-x-x-1-|-0--3-0-3-5--0--3-0-3-5--0--3-0-3-5-|-0-3-x-x-8-|-1-1-1-1-|
|-0-1-x-x-1-|-0--3-0-3-5--0--3-0-3-5--0--3-0-3-5-|-0-3-x-x-8-|-1-1-1-1-|
No Guitar in second verse
1| 2|
|-8-8-8-8-8-8-3-3-3-3-3-3-|-5-5-5-5-5-5--------------|-6-6-6-6-6-6-|
|-8-8-8-8-8-8-3-3-3-3-3-3-|-5-5-5-5-5-5--------------|-6-6-6-6-6-6-|
|-7-7-7-7-7-7-2-2-2-2-2-2-|-4-4-4-4-4-4--------------|-5-5-5-5-5-5-|
|-5-5-5-5-5-5-0-0-0-0-0-0-|-2-2-2-2-2-2-/8-8-8-8-8-8-|-3-3-3-3-3-3-|
|-5-5-5-5-5-5-0-0-0-0-0-0-|-2-2-2-2-2-2-/8-8-8-8-8-8-|-3-3-3-3-3-3-|
|-5-5-5-5-5-5-0-0-0-0-0-0-|-2-2-2-2-2-2-/8-8-8-8-8-8-|-3-3-3-3-3-3-|
|-----------|
|-----------|
|-----------|
|-0-1-x-x-1-|
|-0-1-x-x-1-|
|-0-1-x-x-1-|
Solo
1,3| 2|
|------------------------------------------|---------------|-------------|
|------------------------------------------|---------------|-------------|
|------------------------------------------|---------------|-------------|
|-0-12-0-10h12--8-8-5-0-3-5-5-0-12-0-10h12-|-3-3-3-0-3-3-3-|-3-x-x-3-0-3-|
|-0-12-0-10h12--8-8-5-0-3-5-5-0-12-0-10h12-|-3-3-3-0-3-3-3-|-3-x-x-3-0-3-|
|-0-12-0-10h12--8-8-5-0-3-5-5-0-12-0-10h12-|-3-3-3-0-3-3-3-|-3-x-x-3-0-3-|
4|
|-------------------|
|-------------------|
|-------------------|
|-10-10-10-10-10-10-|
|-8--8--8--8--8--8--|
|-8--8--8--8--8--8--|
|-8-8-8-8-8-8-3-3-3-3-3-3-5-5-5-5-5-5-6-6-6-6-6-6-|
|-8-8-8-8-8-8-3-3-3-3-3-3-5-5-5-5-5-5-6-6-6-6-6-6-|
|-7-7-7-7-7-7-2-2-2-2-2-2-4-4-4-4-4-4-5-5-5-5-5-5-|
|-5-5-5-5-5-5-0-0-0-0-0-0-2-2-2-2-2-2-3-3-3-3-3-3-|
|-5-5-5-5-5-5-0-0-0-0-0-0-2-2-2-2-2-2-3-3-3-3-3-3-|
|-5-5-5-5-5-5-0-0-0-0-0-0-2-2-2-2-2-2-3-3-3-3-3-3-|
Play x 2
1| 2|
|-8-8-8-8-8-8-3-3-3-3-3-3-|-5-5-5-5-5-5--------------|-6-6-6-6-6-6-|
|-8-8-8-8-8-8-3-3-3-3-3-3-|-5-5-5-5-5-5--------------|-6-6-6-6-6-6-|
|-7-7-7-7-7-7-2-2-2-2-2-2-|-4-4-4-4-4-4--------------|-5-5-5-5-5-5-|
|-5-5-5-5-5-5-0-0-0-0-0-0-|-2-2-2-2-2-2-/8-8-8-8-8-8-|-3-3-3-3-3-3-|
|-5-5-5-5-5-5-0-0-0-0-0-0-|-2-2-2-2-2-2-/8-8-8-8-8-8-|-3-3-3-3-3-3-|
|-5-5-5-5-5-5-0-0-0-0-0-0-|-2-2-2-2-2-2-/8-8-8-8-8-8-|-3-3-3-3-3-3-|
|-----------|
|-----------|
|-----------|
|-0-1-x-x-1-|
|-0-1-x-x-1-|
|-0-1-x-x-1-|
Outro
|-4-4-4-4-4-4-|
|-4-4-4-4-4-4-|
|-3-3-3-3-3-3-|
|-1-1-1-1-1-1-|
|-1-1-1-1-1-1-|
|-1-1-1-1-1-1-|
Play x 8




Ваше мнение



Капча