-----------------------------------------------------------------------------
COMPLETE - Helmet
-----------------------------------------------------------------------------

Tabbed by an17nin17
e-mail - [email protected]

Drop D Tuning – D, A, D, G, B, E

Verse

|------------------------|-----|------------------------|------------|
|------------------------|-----|------------------------|------------|
|------------------------|-0~~-|------------------------|------------|
|-3--0—3-0---3-3-0-3-0-0-|-5~~-|-3--0-3-0---3-3-0-3-0-0-|-5--5--6--5-|
|-3--0—3-0---3-3-0-3-0-0-|-4~~-|-3--0-3-0---3-3-0-3-0-0-|-4--4--6--5-|
|-3--0—3-0---3-3-0-3-0-0-|-5~~-|-3--0-3-0---3-3-0-3-0-0-|-5--5--6--5-|
Play x 6 | | Play x 4 |

Chorus

|--------------------------------------------------------|
|--------------------------------------------------------|
|--------------------------------------------------------|
|-3p0-2-3-0-0--0-3p0-2-3-0-0--0-3p0-2-3-0-0--0-1-1-6-5-5-|
|-3p0-2-3-0-0--0-3p0-2-3-0-0--0-3p0-2-3-0-0--0-1-1-6-5-5-|
|-3p0-2-3-0-0--0-3p0-2-3-0-0--0-3p0-2-3-0-0--0-1-1-6-5-5-|
Play x 6

Solo
1,2,3,5,6,7,9,10,11,13,14,15| 4,12,16| 8|
|----------------------|---------|------------|----------|
|----------------------|---------|------------|----------|
|----------------------|---------|------------|----------|
|-2p0--0-2p0--0-2p0--0-|-2h3p2-0-|-10h12p10-0-|-9h10p9-0-|
|-2p0--0-2p0--0-2p0--0-|-2h3p2-0-|-10h12p10-0-|-9h10p9-0-|
|-2p0--0-2p0--0-2p0--0-|-2h3p2-0-|-10h12p10-0-|-9h10p9-0-|
| Guitar 1
|-------------------------------------------------------------------|
|-------------------------------------------------------------------|
|-17-17-17-17-17-17-15-15-15-15-15-15-12-12-12-12-12-12-101010101010|
|-------------------------------------------------------------------|
|-15-15-15-15-15-15-13-13-13-13-13-13-10-10-10-10-10-10-8-8-8-8-8-8-|
|-//-//-//-//-//-//-//-//-//-//-//-//-//-//-//-//-//-//-/-/-/-/-/-/-|
Guitar 2
|-------------------------------------------------------------------------|
|-------------------------------------------------------------------------|
|-17-17-17-17-17-17-22-22-22-22-22-22-12-12-12-12-12-12-101010101010101010|
|-------------------------------------------------------------------------|
|-15-15-15-15-15-15-20-20-20-20-20-20-10-10-10-10-10-10-8-8-8-8-8-8-8-8-8-|
|-//-//-//-//-//-//-//-//-//-//-//-//-//-//-//-//-//-//-/-/-/-/-/-/-/-/-/-|

|-----------------------------------------------|
|-----------------------------------------------|
|-10101015-15-15-15-15-15-22-22-22-22-22-22-22^-|
|-----------------------------------------------|
|-8-8-8-13-13-13-13-13-13-20-20-20-20-20-20-20^-|
|-/-/-/-//-//-//-//-//-//-//-//-//-//-//-//-----|

Bridge

|-----------------------|---------|
|-0---0-----------------|---------|
|-0---0-----------------|---------|
|-3---3---2h3-0-3-3-3p0-|-1-1-6-5-|
|-3---3---2h3-0-3-3-3p0-|-1-1-6-5-|
|-3---3---2h3-0-3-3-3p0-|-1-1-6-5-|
Play x 4 |

Outro

|--------------------------------------------------------|-----|
|--------------------------------------------------------|-0~~-|
|--------------------------------------------------------|-0~~-|
|-3p0-2-3-0-0--0-3p0-2-3-0-0--0-3p0-2-3-0-0--0-1-1-6-5-5-|-3~~-|
|-3p0-2-3-0-0--0-3p0-2-3-0-0--0-3p0-2-3-0-0--0-1-1-6-5-5-|-3~~-|
|-3p0-2-3-0-0--0-3p0-2-3-0-0--0-3p0-2-3-0-0--0-1-1-6-5-5-|-3~~-|
Guitar 1 Play x 6 |

|--------------------------------------------------------|
|--------------------------------------------------------|
|-17-17-17-17-17-17-17-17-17--17-17-17-17-17-17-17-17-17-|
|--------------------------------------------------------|
|-15-15-15-15-15-15-15-15-15--15-15-15-15-15-15-15-15-15-|
|-//-//-//-//-//-//-//-//-//--//-//-//-//-//-//-//-//-//-|
Guitar 2 Play x 3

|--------------------------------------------------------|
|--------------------------------------------------------|
|-22-22-22-22-22-22-22-22-22--22-22-22-22-22-22-22-22-22-|
|--------------------------------------------------------|
|-20-20-20-20-20-20-20-20-20--20-20-20-20-20-20-20-20-20-|
|-//-//-//-//-//-//-//-//-//--//-//-//-//-//-//-//-//-//-|
Play x 2

|--------------------------------------------------------|-----|
|--------------------------------------------------------|-----|
|-22-22-22-22-22-22-22-22-22--22^------------------------|-----|
|--------------------------------------------------------|-----|
|-20-20-20-20-20-20-20-20-20--20^------------------------|-----|
|--------------------------------------------------------|-----|




Ваше мнение



Капча