-----------------------------------------------------------------------------
CLEAN - Helmet
-----------------------------------------------------------------------------

Tabbed by an17nin17
Email - [email protected]

Drop D Tuning - D, A, D, G, B, E

Intro

|---------------|
|---------------|
|---------------|
|-0-3-0-1h3p1-0-|
|-0-3-0-1h3p1-0-|
|-0-3-0-1h3p1-0-|

Verse

|-----------------------------------------------|
|-----------------------------------------------|
|-----------------------------------------------|
|-1h3-3-3-3---1---3---1h3-3-3-3---3---1-1-1-3-0-|
|-1h3-3-3-3---1---3---1h3-3-3-3---3---1-1-1-3-0-|
|-1h3-3-3-3---1---3---1h3-3-3-3---3---1-1-1-3-0-|
Play x 6

Chorus

|--------------------------------|---------------|
|--------------------------------|---------------|
|--------------------------------|---------------|
|-1---1---3---3---1---1---3---3/-|-0-3-0-1h3p1-0-|
|-1---1---3---3---1---1---3---3/-|-0-3-0-1h3p1-0-|
|-1---1---3---3---1---1---3---3/-|-0-3-0-1h3p1-0-|
Play x 2 |

|-----------------------------------------------|
|-----------------------------------------------|
|-----------------------------------------------|
|-1h3-3-3-3---1---3---1h3-3-3-3---3---1-1-1-3-0-|
|-1h3-3-3-3---1---3---1h3-3-3-3---3---1-1-1-3-0-|
|-1h3-3-3-3---1---3---1h3-3-3-3---3---1-1-1-3-0-|
Play x 6

|--------------------------------|
|--------------------------------|
|--------------------------------|
|-1---1---3---3---1---1---3---3/-|
|-1---1---3---3---1---1---3---3/-|
|-1---1---3---3---1---1---3---3/-|
Play x 2

Middle 8
1,2| 3|
|-------------------------|---------------------|---------------|
|-------------------------|---------------------|---------------|
|-------------------------|---------------------|---------------|
|-4-4-4-4-4-4-0-0-0-0-3-3-|-3-3-3-3-6-6-6-6-6-6-|-0-3-0-1h3p1-0-|
|-4-4-4-4-4-4-0-0-0-0-3-3-|-3-3-3-3-6-6-6-6-6-6-|-0-3-0-1h3p1-0-|
|-4-4-4-4-4-4-0-0-0-0-3-3-|-3-3-3-3-6-6-6-6-6-6-|-0-3-0-1h3p1-0-|

Outro

|--------------------------------|-----|
|--------------------------------|-----|
|--------------------------------|-0~~-|
|-1---1---3---3---1---1---3---3/-|-4~~-|
|-1---1---3---3---1---1---3---3/-|-4~~-|
|-1---1---3---3---1---1---3---3/-|-4~~-|
Play x 4 |

And That's It.




Ваше мнение



Капча