Artist: Helmet
Album: Aftertaste
Tabbed By: Simon Robson
Drop D Tuning
------------------------------------------------------------------------------|
----5-------7--------------------------------9-9--10-11--12-------------------|
----4-------6--------------------------------8-8--9--10--11-------------------|
----2-------4--------------------------------6-6--7--8---9--------------------|
-0--2----0--4--------------------------------6-6--7--8---9--------------------|
-0--2----0--4--------------------------------6-6--7--8---9--------------------|
Play this a couple times then this
------------------------------------------------------------------------------|
-7-7-7-7-7-7-7-7-/10-10-10-10-10-10-10-10-5-5-5-5-5-5-5-5-3-3-3-3-3-3-3-3-----|
-6-6-6-6-6-6-6-6-/9--9--9--9--9--9--9--9--4-4-4-4-4-4-4-4-2-2-2-2-2-2-2-2-----|
-4-4-4-4-4-4-4-4-/7--7--7--7--7--7--7--7--2-2-2-2-2-2-2-2-0-0-0-0-0-0-0-0-----|
-4-4-4-4-4-4-4-4-/7--7--7--7--7--7--7--7--2-2-2-2-2-2-2-2-0-0-0-0-0-0-0-0-----|
-4-4-4-4-4-4-4-4-/7--7--7--7--7--7--7--7--2-2-2-2-2-2-2-2-0-0-0-0-0-0-0-0-----|
------------------------------------------------------------------------------|
-7-7-7-7-7-7-7-7-8-8-8-8-8-8-8-8-9-9-9-9-9-9-9-9-10-10-10-10-10-10-10-10-10---|
-6-6-6-6-6-6-6-6-7-7-7-7-7-7-7-7-8-8-8-8-8-8-8-8-9--9--9--9--9--9--9--9--9----|
-4-4-4-4-4-4-4-4-5-5-5-5-5-5-5-5-6-6-6-6-6-6-6-6-7--7--7--7--7--7--7--7--7----|
-4-4-4-4-4-4-4-4-5-5-5-5-5-5-5-5-6-6-6-6-6-6-6-6-7--7--7--7--7--7--7--7--7----|
-4-4-4-4-4-4-4-4-5-5-5-5-5-5-5-5-6-6-6-6-6-6-6-6-7--7--7--7--7--7--7--7--7----|
------------------------------------------------------------------------------|
------------------------------------------------------------------------------|
------------------------------------------------------------------------------|
-------------------------/5-5-5-5-7-7-7-7-------------------------------------|
-0-2---0-2---0-2---0--2--/5-5-5-5-7-7-7-7----0-2---0-2---0-2---0-2------------|
-0-2---0-2---0-2---0--2--/5-5-5-5-7-7-7-7----0-2---0-2---0-2---0-2------------|
Wah solo or something
------------------------------------------------------------------------------|
------------------------------------------------------------------------------|
------------------------------------------------------------------------------|
-/5-5-5-5-3-3----------------------------/5-5-5-5-7-7-7-7-7-7-7-7-------------|
-/5-5-5-5-3-3----0-2---0-2---0-2---0--2--/5-5-5-5-7-7-7-7-7-7-7-7-------------|
-/5-5-5-5-3-3----0-2---0-2---0-2---0--2--/5-5-5-5-7-7-7-7-7-7-7-7-------------|




Ваше мнение



Капча