-----------------------------------------------------------------------------
BORN ANNOYING (1993) - Helmet
-----------------------------------------------------------------------------

Tabbed by an17nin17
Email - [email protected]

Drop D Tuning - D, A, D, G, B, E

Intro/Verse

|--------------------------------|----------------|
|--------------------------------|------------0-0-|
|--------------------------------|------------0-0-|
|-5-/3-5-/3-/6-6--5-/3-5-/3-/6-6-|-5-/3-5-/3-/6-6-|
|-5-/3-5-/3-/6-6--5-/3-5-/3-/6-6-|-5-/3-5-/3-/6-6-|
|-5-/3-5-/3-/6-6--5-/3-5-/3-/6-6-|-5-/3-5-/3-/6-6-|
Play x 14 | Play x 8

|--------------------------------|----------------|-----------------|
|--------------------------------|------------0-0-|-----------------|
|--------------------------------|------------0-0-|-----------------|
|-5-/3-5-/3-/6-6--5-/3-5-/3-/6-6-|-5-/3-5-/3-/6-6-|-6-6-6-6-6-6-6-6-|
|-5-/3-5-/3-/6-6--5-/3-5-/3-/6-6-|-5-/3-5-/3-/6-6-|-6-6-6-6-6-6-6-6-|
|-5-/3-5-/3-/6-6--5-/3-5-/3-/6-6-|-5-/3-5-/3-/6-6-|-6-6-6-6-6-6-6-6-|
Play x 4 | Play x 8 |

Chorus

|---------------------------------------|
|---------------------------------------|
|---------------------------------------|
|-2-2-x-x-0-2-2-x-x-0-2-2-x-x-0-2-2-3-0-|
|-2-2-x-x-0-2-2-x-x-0-2-2-x-x-0-2-2-3-0-|
|-2-2-x-x-0-2-2-x-x-0-2-2-x-x-0-2-2-3-0-|
Play x 4

|--------------------------------|----------------|
|--------------------------------|------------0-0-|
|--------------------------------|------------0-0-|
|-5-/3-5-/3-/6-6--5-/3-5-/3-/6-6-|-5-/3-5-/3-/6-6-|
|-5-/3-5-/3-/6-6--5-/3-5-/3-/6-6-|-5-/3-5-/3-/6-6-|
|-5-/3-5-/3-/6-6--5-/3-5-/3-/6-6-|-5-/3-5-/3-/6-6-|
Play x 14 | Play x 8

|--------------------------------|----------------|-----------------|
|--------------------------------|------------0-0-|-----------------|
|--------------------------------|------------0-0-|-----------------|
|-5-/3-5-/3-/6-6--5-/3-5-/3-/6-6-|-5-/3-5-/3-/6-6-|-6-6-6-6-6-6-6-6-|
|-5-/3-5-/3-/6-6--5-/3-5-/3-/6-6-|-5-/3-5-/3-/6-6-|-6-6-6-6-6-6-6-6-|
|-5-/3-5-/3-/6-6--5-/3-5-/3-/6-6-|-5-/3-5-/3-/6-6-|-6-6-6-6-6-6-6-6-|
Play x 4 | Play x 8 |

Solo

|---------------------------------------|
|---------------------------------------|
|---------------------------------------|
|-2-2-x-x-0-2-2-x-x-0-2-2-x-x-0-2-2-3-0-|
|-2-2-x-x-0-2-2-x-x-0-2-2-x-x-0-2-2-3-0-|
|-2-2-x-x-0-2-2-x-x-0-2-2-x-x-0-2-2-3-0-|
Play x 8

Outro

|---------|-----------------|
|---------|-----------------|
|---------|-GUITARS-GO-INTO-|
|-2-2-3-0-|-----------------|
|-2-2-3-0-|-A-WALL-OF-NOISE-|
|-2-2-3-0-|-----------------|
Play x 28|

And That's It.

Contact me if you have any comments about this tab.




Ваше мнение



Капча