-----------------------------------------------------------------------------
BORN ANNOYING (1989) - Helmet
-----------------------------------------------------------------------------

Tabbed by an17nin17
email - [email protected]

Standard Tuning – E, A, D, G, B, E

Intro/Verse

|--------------------------------|----------------|
|--------------------------------|------------0-0-|
|--------------------------------|------------0-0-|
|-7-/5-7-/5-/8-8--7-/5-7-/5-/8-8-|-7-/5-7-/5-/8-8-|
|-7-/5-7-/5-/8-8--7-/5-7-/5-/8-8-|-7-/5-7-/5-/8-8-|
|-5-/3-5-/3-/6-6--5-/3-5-/3-/6-6-|-5-/3-5-/3-/6-6-|
Play x 14 | Play x 8

|--------------------------------|----------------|-----------------|
|--------------------------------|------------0-0-|-----------------|
|--------------------------------|------------0-0-|-----------------|
|-7-/5-7-/5-/8-8--7-/5-7-/5-/8-8-|-7-/5-7-/5-/8-8-|-8-8-8-8-8-8-8-8-|
|-7-/5-7-/5-/8-8--7-/5-7-/5-/8-8-|-7-/5-7-/5-/8-8-|-8-8-8-8-8-8-8-8-|
|-5-/3-5-/3-/6-6--5-/3-5-/3-/6-6-|-5-/3-5-/3-/6-6-|-6-6-6-6-6-6-6-6-|
Play x 4 | Play x 8 |

Chorus

|---------------------------------------|
|---------------------------------------|
|---------------------------------------|
|-4-4-x-x---4-4-x-x---4-4-x-x---4-4-5-2-|
|-4-4-x-x---4-4-x-x---4-4-x-x---4-4-5-2-|
|-2-2-x-x-0-2-2-x-x-0-2-2-x-x-0-2-2-3-0-|
Play x 4

|--------------------------------|----------------|
|--------------------------------|------------0-0-|
|--------------------------------|------------0-0-|
|-7-/5-7-/5-/8-8--7-/5-7-/5-/8-8-|-7-/5-7-/5-/8-8-|
|-7-/5-7-/5-/8-8--7-/5-7-/5-/8-8-|-7-/5-7-/5-/8-8-|
|-5-/3-5-/3-/6-6--5-/3-5-/3-/6-6-|-5-/3-5-/3-/6-6-|
Play x 8 | Play x 8

|--------------------------------|----------------|-----------------|
|--------------------------------|------------0-0-|-----------------|
|--------------------------------|------------0-0-|-----------------|
|-7-/5-7-/5-/8-8--7-/5-7-/5-/8-8-|-7-/5-7-/5-/8-8-|-8-8-8-8-8-8-8-8-|
|-7-/5-7-/5-/8-8--7-/5-7-/5-/8-8-|-7-/5-7-/5-/8-8-|-8-8-8-8-8-8-8-8-|
|-5-/3-5-/3-/6-6--5-/3-5-/3-/6-6-|-5-/3-5-/3-/6-6-|-6-6-6-6-6-6-6-6-|
Play x 4 | Play x 8 |

Solo

|---------------------------------------|
|---------------------------------------|
|---------------------------------------|
|-4-4-x-x---4-4-x-x---4-4-x-x---4-4-5-2-|
|-4-4-x-x---4-4-x-x---4-4-x-x---4-4-5-2-|
|-2-2-x-x-0-2-2-x-x-0-2-2-x-x-0-2-2-3-0-|
Play x 8

Outro

|---------|-----------------|
|---------|-----------------|
|---------|-GUITARS-GO-INTO-|
|-4-4-5-2-|-----------------|
|-4-4-5-2-|-A-WALL-OF-NOISE-|
|-2-2-3-0-|-----------------|
Play x 28|




Ваше мнение



Капча