Artist - Helmet
Song - Biscuits For Smut
Album - Betty
Tabbed By an17nin17

Tuning - Low to High - A, A, D, G, B, E

Note - The low E string is tuned down to A (an octave below the 5th string)

Intro

|----------------------------------|
|----------------------------------|
|----------0-----------0-------0---|
|--|
|--|
|--|
Play x 4

Main Riff

|-----------------------|--------------------------|-----------------------|
|-----------------------|--------------------------|-----------------------|
|-----------------------|--------------------------|-----------------------|
|-----------------------|--------------------------|-----------------------|
|-----------------------|--------------------------|-----------------------|
|-0-0-0-/10-0-0-3^-0-3^-|-0-0-0-/10---0-0-3^-0-3h5-|-0-0-0-/10-0-0-3^-0-3^-|
Play x 12 | Play x 4 | Play x 8

Pre-Solo

|--------------------|
|--------------------|
|--------------------|
|--0-0-0-0-0-0---0-0-|
|-/5-5-5-5-5-5---5-5-|
|-/5-5-5-5-5-5---5-5-|
Play x 4

Solo - I've only tabbed the rhythm because like all helmet solo's they're just
mental freakouts.

|-----------------------|
|-----------------------|
|-----------------------|
|-----------------------|
|-----------------------|
|-0-0-0-/10-0-0-3^-0-3^-|
Play x 8

Post-solo

|----------------------------------------|----------------------------------|
|----------------------------------------|----------------------------------|
|----------------------------------------|----------0-----------0-------0---|
|----------------------------------------|--|
|----------------------------------------|--|
|-0-0-/12-0-7---5---7-5-0---/3-3-3/5-5-5-|--|
Play x 4 | Play x 4

Outro

|-----------------------|---------------------|
|-----------------------|---------------------|
|-----------------------|-----------6---------|
|-----------------------|-------------5~~-----|
|-----------------------|-0~~---------------0-|
|-0-0-0-/10-0-0-3^-0-3^-|-0~~---------------0-|
Repeat until the end ^Depress whammy bar all the way!

And thats it. That was a tough song to tab and i might be wrong with the tuning,
but like everyone of my tabs if you have any comments or want any tabs, contact
me at [email protected]




Ваше мнение



Капча