-----------------------------------------------------------------------------
BIRTH DEFECT - Helmet
-----------------------------------------------------------------------------

Tabbed by an17nin17
Email - [email protected]

Drop D Tuning - D, A, D, G, B, E

Intro
1|
|------------------------------------------------------|-------------|
|-1010101010101010101010101010101010101010101010101010-|-------------|
|-1111111111111111111111111111111111111111111111111111-|-------------|
|-9-9-9-9-9-9-9-9-9-9-9-9-9-9-9-9-9-9-9-9-9-9-9-9-9-9--|-7-7-7-7-7-7-|
|-9-9-9-9-9-9-9-9-9-9-9-9-9-9-9-9-9-9-9-9-9-9-9-9-9-9--|-7-7-7-7-7-7-|
|-9-9-9-9-9-9-9-9-9-9-9-9-9-9-9-9-9-9-9-9-9-9-9-9-9-9--|-7-7-7-7-7-7-|

2|
|---------------|
|---------------|
|---------------|
|-7-7-7-7-5-5-5-|
|-7-7-7-7-5-5-5-|
|-7-7-7-7-5-5-5-|

Verse

|--------------|-------------|--------------|-------------|--------------|
|--------------|-------------|--------------|-------------|-7-7-7-7-7-7^-|
|--------------|-------------|--------------|-------------|-9-9-9-9-9-9^-|
|-4--x-x-4--|-4-5-0-2-2p0-|-4--x-x-4--|-4-5-0-2-2p0-|--------------|
|-4--x-x-4--|-4-5-0-2-2p0-|-4--x-x-4--|-4-5-0-2-2p0-|--------------|
|-4--x-x-4--|-4-5-0-2-2p0-|-4--x-x-4--|-4-5-0-2-2p0-|--------------|
Play x 7 | | Play x 11 | | Play x 4

|--------------|-------------|
|--------------|-------------|
|--------------|-------------|
|-4--x-x-4--|-4-5-0-2-2p0-|
|-4--x-x-4--|-4-5-0-2-2p0-|
|-4--x-x-4--|-4-5-0-2-2p0-|
| Play x 11 |

Chorus
1| 2|
|-0-0-0-0-0-0-0-0-0-0-0-0-|-0-0-0-0-0-0-|-0-0-0-0-0-0-0-0-0-0-0-0-0-0-0-|
|-0-0-0-0-0-0-0-0-3-3-3-3-|-0-0-0-0-0-0-|-0-0-0-0-0-0-0-0-0-0-0-0-0-0-0-|
|-0-0-0-0-0-0-0-0-2-2-2-2-|-0-0-0-0-0-0-|-0-0-0-0-0-0-0-0-0-0-0-0-0-0-0-|
|-4-4-4-4-5-5-5-5-0-0-0-0-|-2-2-2-3-3-3-|-2-2-2-3-3-3-4-4-4-5-5-5-7-7-7-|
|-4-4-4-4-5-5-5-5-0-0-0-0-|-2-2-2-3-3-3-|-2-2-2-3-3-3-4-4-4-5-5-5-7-7-7-|
|-4-4-4-4-5-5-5-5-0-0-0-0-|-2-2-2-3-3-3-|-2-2-2-3-3-3-4-4-4-5-5-5-7-7-7-|
/ / / / / / / / / / / / / / / / / / / / / / / / / / / / / / / / /

1|
|------------------------------------------------------|-------------|
|-1010101010101010101010101010101010101010101010101010-|-------------|
|-1111111111111111111111111111111111111111111111111111-|-------------|
|-9-9-9-9-9-9-9-9-9-9-9-9-9-9-9-9-9-9-9-9-9-9-9-9-9-9--|-7-7-7-7-7-7-|
|-9-9-9-9-9-9-9-9-9-9-9-9-9-9-9-9-9-9-9-9-9-9-9-9-9-9--|-7-7-7-7-7-7-|
|-9-9-9-9-9-9-9-9-9-9-9-9-9-9-9-9-9-9-9-9-9-9-9-9-9-9--|-7-7-7-7-7-7-|

2|
|---------------|
|---------------|
|---------------|
|-7-7-7-7-5-5-5-|
|-7-7-7-7-5-5-5-|
|-7-7-7-7-5-5-5-|

Bridge

|------------------------------------------------------|
|----------5------------5------------5-----------------|
|----------7------------7------------7-----------------|
|-4--x-x-4-0---4--x-x-4-0---4--x-x-4-0---9-7--5--7-7-5-|
|-4--x-x-4-0---4--x-x-4-0---4--x-x-4-0---9-7--5--7-7-5-|
|-4--x-x-4-0---4--x-x-4-0---4--x-x-4-0---9-7--5--7-7-5-|

|------------------------------------------------------|
|----------5------------5------------5-----------------|
|----------7------------7------------7-----------------|
|-4--x-x-4-0---4--x-x-4-0---4--x-x-4-0---4-5--0--2-2p0-|
|-4--x-x-4-0---4--x-x-4-0---4--x-x-4-0---4-5--0--2-2p0-|
|-4--x-x-4-0---4--x-x-4-0---4--x-x-4-0---4-5--0--2-2p0-|
Play x 2

|------------------------------------------------------|
|----------5------------5------------5-----------------|
|----------7------------7------------7-----------------|
|-4--x-x-4-----4--x-x-4-----4--x-x-4-----9-7--5--7-7-5-|
|-4--x-x-4-----4--x-x-4-----4--x-x-4-----9-7--5--7-7-5-|
|-4--x-x-4-----4--x-x-4-----4--x-x-4-----9-7--5--7-7-5-|

|--------------------------------------------------------|
|----------5------------5------------5-------------------|
|----------7------------7------------7-------------------|
|-4--x-x-4-----4--x-x-4-----4--x-x-4-----4-5--0--2-2p0-3-|
|-4--x-x-4-----4--x-x-4-----4--x-x-4-----4-5--0--2-2p0-3-|
|-4--x-x-4-----4--x-x-4-----4--x-x-4-----4-5--0--2-2p0-3-|

1| 2|
|-0-0-0-0-0-0-0-0-0-0-0-0-|-0-0-0-0-0-0-|-0-0-0---------------|
|-0-0-0-0-0-0-0-0-3-3-3-3-|-0-0-0-0-0-0-|-0-0-0---------------|
|-0-0-0-0-0-0-0-0-2-2-2-2-|-0-0-0-0-0-0-|-0-0-0---------------|
|-4-4-4-4-5-5-5-5-0-0-0-0-|-2-2-2-3-3-3-|-2-2-2-9-7--5--7-7-5-|
|-4-4-4-4-5-5-5-5-0-0-0-0-|-2-2-2-3-3-3-|-2-2-2-9-7--5--7-7-5-|
|-4-4-4-4-5-5-5-5-0-0-0-0-|-2-2-2-3-3-3-|-2-2-2-9-7--5--7-7-5-|
/ / / / / / / / / / / / / / / / / / / / /

Outro

|-0-0-0-0-0-0-0-0-0-0-0-0-0-0-0-0-0-0-0-0-0-0-0-0-0-0-0-0-----|
|-0-0-0-0-0-0-0-0-0-0-0-0-0-0-0-0-0-0-0-0-0-0-0-0-0-0-0-0-11~-|
|-0-0-0-0-0-0-0-0-0-0-0-0-0-0-0-0-0-0-0-0-0-0-0-0-0-0-0-0-10~-|
|-4-4-4-4-5-5-5-5-7-7-7-7-9-9-9-9-4-4-4-4-5-5-5-5-7-7-7-7-9~~-|
|-4-4-4-4-5-5-5-5-7-7-7-7-9-9-9-9-4-4-4-4-5-5-5-5-7-7-7-7-9~~-|
|-4-4-4-4-5-5-5-5-7-7-7-7-9-9-9-9-4-4-4-4-5-5-5-5-7-7-7-7-9~~-|
/ / / / / / / / / / / / / / / / / / / / / / / / / / / /

And That's It.

Contact me if you have any comments about this tab.




Ваше мнение



Капча