-----------------------------------------------------------------------------
BETTER - Helmet
-----------------------------------------------------------------------------

Tabbed by an17nin17
Email - [email protected]

Drop D Tuning – D, A, D, G, B, E

Intro

|-----|---------------------------------------------------|
|-----|---------------------------------------------------|
|-----|---------------------------------------------------|
|-2-3-|-0-2-3-0-2-3-0-2-3-0-2-3-0-2-3-0-2-3-0-2-3-0-2-2-3-|
|-2-3-|-0-2-3-0-2-3-0-2-3-0-2-3-0-2-3-0-2-3-0-2-3-0-2-2-3-|
|-2-3-|-0-2-3-0-2-3-0-2-3-0-2-3-0-2-3-0-2-3-0-2-3-0-2-2-3-|
PM… PM……………………………………………………………………………………………………………………………
| Play x 3

| 1,2,3,4,5,6,7| 8|
|----------------|---------|---------|-----------|
|----------------|---------|---------|-----------|
|----------------|---------|---------|-----------|
|-5-3-0--0-2-3-0-|-0-5-3-0-|-0-2-3-0-|-0-2-3-2~~-|
|-5-3-0--0-2-3-0-|-0-5-3-0-|-0-2-3-0-|-0-2-3-2~~-|
|-5-3-0--0-2-3-0-|-0-5-3-0-|-0-2-3-0-|-0-2-3-2~~-|

Verse

|----------------|------------------|----------------------|-----|
|----------------|------------------|----------------0-0-0-|-----|
|----------------|------------------|----------------0-0-0-|-----|
|-5-3-0--0-2-3-0-|-0-5-3-0--0-2-3-0-|-0-2-3-0-2-3-0--0-0-0-|-0~~-|
|-5-3-0--0-2-3-0-|-0-5-3-0--0-2-3-0-|-0-2-3-0-2-3-0--------|-0~~-|
|-5-3-0--0-2-3-0-|-0-5-3-0--0-2-3-0-|-0-2-3-0-2-3-0--------|-0~~-|
| Play x 7 | Play x 3 |

|----------------|------------------|----------------------|
|----------------|------------------|----------------0-0-0-|
|----------------|------------------|----------------0-0-0-|
|-5-3-0--0-2-3-0-|-0-5-3-0--0-2-3-0-|-0-2-3-0-2-3-0--0-0-0-|
|-5-3-0--0-2-3-0-|-0-5-3-0--0-2-3-0-|-0-2-3-0-2-3-0--------|
|-5-3-0--0-2-3-0-|-0-5-3-0--0-2-3-0-|-0-2-3-0-2-3-0--------|
| Play x 7 | Play x 3

Chorus
1,3,5,7| 2,4,6| 8|
|---------------|---------------|--------------|---------------------|
|---------------|---------------|--------------|---------------------|
|---------------|---------------|--------------|---------------------|
|-0-0--0-3^-0-0-|-0-0-6-5-0-3-5-|-5-6-5--2-3-2-|-5-6-5--5--5--5--5-5-|
|-0-0--0-3^-0-0-|-0-0-6-5-0-3-5-|-5-6-5--2-3-2-|-5-6-5--5--5--5--5-5-|
|-0-0--0-3^-0-0-|-0-0-6-5-0-3-5-|-5-6-5--2-3-2-|-5-6-5--5--5--5--5-5-|

Middle 8

|-----------------------------|-----------|--------------|
|-----------------------------|-----------|--------------|
|-----------------------------|-----------|--------------|
|-0---7-8-8-8---0---7-8-5-6-6-|-0-0--0-3^-|-5-6-5--2-3-2-|
|-0---7-8-8-8---0---7-8-5-6-6-|-0-0--0-3^-|-5-6-5--2-3-2-|
|-0---7-8-8-8---0---7-8-5-6-6-|-0-0--0-3^-|-5-6-5--2-3-2-|
Play x 4 | Play x 16 |

Outro

1,3,5,7| 2,4,6| 8|
|---------------|---------------|--------------|----------------------|
|---------------|---------------|--------------|----------------------|
|---------------|---------------|--------------|----------------------|
|-0-0--0-3^-0-0-|-0-0-6-5-0-3-5-|-5-6-5--2-3-2-|-7-6-5~~--2-3-2-0-2-2-|
|-0-0--0-3^-0-0-|-0-0-6-5-0-3-5-|-5-6-5--2-3-2-|-7-6-5~~--2-3-2-0-2-2-|
|-0-0--0-3^-0-0-|-0-0-6-5-0-3-5-|-5-6-5--2-3-2-|-7-6-5~~--2-3-2-0-2-2-|

And That's It.

Contact me if you have any comments about this tab.




Ваше мнение



Капча