-----------------------------------------------------------------------------
BEAUTIFUL LOVE - Helmet
-----------------------------------------------------------------------------

Tabbed by an17nin17
Email - [email protected]

Standard Tuning - E, A, D, G, B, E

|--------------|-----------------------|
|---10~~-8---6-|-3h5-3-5-6-------6-6-6-|
|---7~~~-----6-|---------------5-----5-|
|---8~~~-----5-|-------------5-------4-|
|-7----------x-|-----------5---------5-|
|------------5-|-----------------------|

|---------------------------------------------------7-9h12-12~~-12p10----|
|-6-6h8-10h13-11~~-10~~-8----8-10--------10-10-10----------10~~-------10-|
|-------------10~~-9~~~---10-----------9-------7-----------10~~----------|
|-------------x----8~~~-------------10---------8-----------10~~----------|
|-------------10---x--------------8------------7-------------------------|
|------------------8~~~--------------------------------------------------|

|-8~~~----------------------------5-|-5-5--------------------------------|
|-11~~-11-----5-5~~-5-5~~-5-6h8-6-6-|-----3p2-2-3h5-5~~-5~~-----5-6-8h10-|
|-10~~------7---7~~---6~~---------6-|---------4-----x---x-----7----------|
|---------------6~~---5~~---------5-|---------3-----7~~-6~~--------------|
|-10------------x---------------5---|---------------7~~-6~~--------------|
|---------------6~~---5-------------|---------3--------------------------|

|----------------5~~-|
|-10~~-8-13~~-11-6~~-|
|-7~~~---10~~----5~~-|
|-8~~~---11~~----5~~-|
|-7~~~---10~~----5~~-|
|--------------------|

|---------------------------------------------------7-9h12-12~~-12p10----|
|-6-6h8-10h13-11~~-10~~-8----8-10--------10-10-10----------10~~-------10-|
|-------------10~~-9~~~---10-----------9-------7-----------10~~----------|
|-------------x----8~~~-------------10---------8-----------10~~----------|
|-------------10---x--------------8------------7-------------------------|
|------------------8~~~--------------------------------------------------|

|-8~~~----------------------------5-|-------------------------------------|
|-11~~-11-----5-5~~-5-5~~-5-6h8-6-6-|---3-------6---6-------------------8-|
|-10~~------7---7~~---6~~---------6-|---2-7-----6---5---12p10p9-------9---|
|---------------6~~---5~~---------5-|---1-8-----5---x-----------12-11-----|
|-10------------x---------------5---|-0-2-7-----x-0-5---------------------|
|---------------6~~---5-------------|-----------0---5---------------------|

|-----------------|-------------------|
|-11p10-8---------|-------------------|
|---------10----9-|-LOADS-OF-FEEDBACK-|
|------------11---|-------------------|
|-----------------|-------------------|
|-----------------|-------------------|

And That's It.




Ваше мнение



Капча