-----------------------------------------------------------------------------
BAD MOOD - Helmet
-----------------------------------------------------------------------------

Tabbed by an17nin17
Email - [email protected]

Drop D Tuning - D, A, D, G, B, E

Verse

|---------------|
|---------------|
|---------------|
|-2-2-3-0-2-2-3-|
|-2-2-3-0-2-2-3-|
|-2-2-3-0-2-2-3-|
Play x 16

Chorus

|-10-10-10-10-10-12-12-12-12-12-|
|-8--8--8--8--8--10-10-10-10-10-|
|-10-10-10-10-10-12-12-12-12-12-|
|-//-//-//-//-//-//-//-//-//-//-|
|-------------------------------|
|-------------------------------|
Play x 2

|---------------|
|---------------|
|---------------|
|-2-2-3-0-2-2-3-|
|-2-2-3-0-2-2-3-|
|-2-2-3-0-2-2-3-|
Play x 12

|-10-10-10-10-10-12-12-12-12-12-|
|-8--8--8--8--8--10-10-10-10-10-|
|-10-10-10-10-10-12-12-12-12-12-|
|-//-//-//-//-//-//-//-//-//-//-|
|-------------------------------|
|-------------------------------|
Play x 2

Solo

|-10-10-10-10-10-9-9-9-9-9-|
|-8--8--8--8--8--7-7-7-7-7-|
|-10-10-10-10-10-9-9-9-9-9-|
|-//-//-//-//-//-/-/-/-/-/-|
|--------------------------|
|--------------------------|
Play x 8

Outro

|---------------|
|---------------|
|---------------|
|-2-2-3-0-2-2-3-|
|-2-2-3-0-2-2-3-|
|-2-2-3-0-2-2-3-|
Play x 16

And That's It

Contact me if you have any comments about this tab.




Ваше мнение



Капча