-----------------------------------------------------------------------------
ARMY OF ME - Helmet
-----------------------------------------------------------------------------

Tabbed by an17nin17
email - [email protected]

Standard Tuning – E, A, D, G, B, E

Verse

|----------------|
|-BASS-AND-DRUMS-|
|----------------|
|----------------|
|---THROUGHOUT---|
|----------------|

Chorus

|--------------|
|--------------|
|--------------|
|-8--7--6---|
|-8--7--6---|
|-6--5--4---|
Play x 8

|----------------|
|-BASS-AND-DRUMS-|
|----------------|
|----------------|
|---THROUGHOUT---|
|----------------|

|--------------|-------------|
|--------------|-------------|
|--------------|-15^~~---x-x-|
|-8--7--6---|-------------|
|-8--7--6---|-------------|
|-6--5--4---|-------------|
Play x 8 |

|----------------|
|-BASS-AND-DRUMS-|
|----------------|
|----------------|
|---THROUGHOUT---|
|----------------|

Outro

|--------------|
|--------------|
|--------------|
|-8--7--6---|
|-8--7--6---|
|-6--5--4---|
Play x 36

And Thats it.

Contact me if you have any comments on this tab or any of the other tabs I have done.




Ваше мнение



Капча