Author/Artist: Helloween
Title: You Always Walk Alone
Album: Keeper Of The Seven Keys Part II
Transcribed by: Аndrй Baida da Silva from BRAZIL
Email: [email protected]

Intro.
G--------------------------------12----------------------------------|---
D----0-0-0-15-0-0-0-12-0-0-0-14-----15-14-15-14-12-14-12----12-------|---
A--------------------------------------------------------15----15-14-|---
E--------------------------------------------------------------------|---

G-------------------------------------------------------------------------
D-------------2-0----------------------------2-0--------------------------
A------------------3-2-3-2-3-5-3-2----------------10-9-7----7-------------
E----0-0-0-0-------------------------0-0-0-0-------------10---10-7-10-----

G-----------------------------------------------5-4-2-------------|-------0-2|-
D------------2-0---------------------------2-0--------5-2---------|---2-4----|-
A----------------3-2-3-2-3-5-3-2--------------------------5-2-5---|----------|-
E----0-0-0-0-----------------------0-0-0-0------------------------|-0--------|-

Vocals.
G------------------------------------------------------------------------------
D---------2-2-2-2-2-2-2-2-2-2-2-2-2-2--2-0-------------------------------------
A------------------------------------------3-2-0----2-2-2-2-2-2-2-2-2-2-0-0-0--
E------------------------------------------------3-----------------------------

G--------------------------------------------|----
D------------------2-2-2-2-------2-2-2-------|----
A-0-0-1-2-2-2-2-2----------------------------|----
E--------------------------0-0-3-------0-0-3-|----

Vocals II (2X) Bridge.
G------------------------------------------------------||----------------------
D------------------------------------2-2-2-2-2-2-2-2-2-||----------------------
A----0-0-3-3-2-2-----0-0-3-3-2-2-5-5-------------------||--3-3-3-3-3-5-5-5-5---
E----------------3-3-----------------------------------||----------------------

G-------------------------------------------------------|---
D---------------------------------------2-0-------------|---
A-5-------------------3-3-3-3-5-5-5-5-------3-2-3-2-----|---
E---3-3-2-2-0-0-0-0-0-------------------------------3-2-|---
Repeat Vocals, Vocals II, Bridge and then:
Chorus.
G------------------------------------------------------------------------------
D----2-2-2-2-2-2-2-2-5-5-5-5-5-5-5-5-2-2-2-2-2-2-2-2-0-0-0-0-0-0-0-0-0---------
A----------------------------------------------------------------------3-3-3---
E------------------------------------------------------------------------------

G-----------------------------|------------------------------------------------
D--------------------2-0-2-0--|--2-2-2-2-2-2-2-2-5-5-5-5-5-5-5-5-2-2-2-2-2-2---
A-3-3-3-5-5-5-5-5-5-----------|------------------------------------------------
E-----------------------------|------------------------------------------------

G----------------------------------------------------------|-------------------
D-2-2-0-0-0-0-0-0-0-0--------------------------------------|-2-2-2-2-2-2-2-2---
A---------------------3-3-3-3-3-3-2-2-2-2-2-2------5-----5-|-------------------
E----------------------------------------------0-0---0-0---|-------------------

G------------------------------------------------------------------------------
D-5-5-5-5-5-5-5-5-2-2-2-2-2-2-2-2-0-0-0-0-0-0-0-0--------------------------2---
A-------------------------------------------------3-3-3-3-3-3-5-5-5-5-5-5------
E------------------------------------------------------------------------------

G---0-2-|----------------------------------------------------------------------
D-4-----|--2-2-2-2-2-2-2-2-5-5-5-5-5-5-5-5-2-2-2-2-2-2-2-2-0-0-0-0-0-0-0-0-----
A-------|------------------------------------------------------------------3---
E-------|----------------------------------------------------------------------

G---------|---
D---------|---
A-2-------|---
E---3-2-0-|---


Repeat this part 4X.
G----------------------------------------------------------------||------------
D----------------------------------------------------------------||------------
A----3-2-2-2-2-2-2-3-2-2-2-2-2-2-3-2-2-2-2-0-0-0-0---------0-0-0-||------------
E--------------------------------------------------3-3-3-3-------||------------

Vocals III (2X).
G--------------------------0---0------------------------0----------------------
D----------------------0-3---3--------------------0-0-0---3-0------------------
A------------------------------------------------------------------------------
E----3-3-3-3-3-3-3-3-3------------3-3-3-3-3-3-3-3--------------3-3-3-3-3-3-3---

G-----------0---0------------------------------------------------||------------
D---0-0-3-3---3---3------------------------------0-----------5-5-||--6---------
A--------------------------------------------------1--3----------||------------
E-3------------------3-3-3-3-3-3-3-3-3-3-3--------------1--3-----||--4---------

Slow Bridge.
G-----------------------------------2-2-2-0-0-0---------------------|----------
D--------------------0-1-2----------------------2-2-2-0-0-0-2-2-2---|----------
A----0-0-0-0-0-0-0-0-------0-0-0-0----------------------------------|----------
E-------------------------------------------------------------------|----------

G-----------------------------------4-4-4-2-2-2---------------------|----------
D--------------------2-3-4----------------------4-4-4-2-2-2-4-4-4---|----------
A----2-2-2-2-2-2-2-2-------2-2-2-2----------------------------------|--0-------
E-------------------------------------------------------------------|----------

Solo.
G------------------------------------------------------------------------------
D------------------------------------------------------------------------------
A----5-5-5-5-5-5-5-5-3--5-5-5-5-5-5-5-5-3--5-5-5-5-5-5-5-5-3--5-5-5-5-5-5-5-5--
E------------------------------------------------------------------------------

G------------------------------------------------------------------------------
D-------------------------------------1-1--------------------------------------
A----3-3-3-3-3-3-3-3-1--3-3-3-3-3-3-3-----2-2-2-2-2-2-2-2-2-2-2-2-2-2-2-2------
E------------------------------------------------------------------------------

Repeat Chorus and then:
G------------------------------------------------------------------------------
D----2-2-2-2-2-2-2-2-5-5-5-5-5-5-5-5-2-2-2-2-2-2-2-2-0-0-0-0-0-0-0-0-----------
A--------------------------------------------------------------------3-3-3-3---
E------------------------------------------------------------------------------

G---------------------------|--------------------------------------------------
D------------------2-0-2-0--|--2-2-2-2-2-2-2-2-5-5-5-5-5-5-5-5-2-2-2-2-2-2-2---
A-3-3-2-2-2-2-2-2-----------|--------------------------------------------------
E---------------------------|--------------------------------------------------

G----------------------------------------|---
D-2-0-0-0-0-0-0-0-0----------------------|---
A-------------------3-3-2-2--------------|---
E---------------------------3-3-2-2-0/12-|---

End.




Ваше мнение



Капча