HELLOWEEN - The Tune
from the Rabbit Donґt Come Easy record
tabbed by [email protected] (Eddie)
30.06.2004
Hello there! This is the best song of the 2003 record and a great guitar stuff too,
so enjoy it !!!
Intro (lead guitar):
E---------------------|-------------------|
B----------------8~~--|-------------------|
G-10b(12)r(10)-7------|-8b(10)r(8)-7-7~~--|
D---------------------|-------------------|
A---------------------|-------------------|
E---------------------|-------------------|
1.,3. 2.,4.
E---------------------------|---------|---------------------------------|
B--------------8-11---10-11-|-10~~~---|-11b(13)-11b(13)-11b(13)-11b(13)-|
G-10b(12)-10-7--------------|---------|---------------------------------|
D---------------------------|---------|---------------------------------|
A---------------------------|---------|---------------------------------|
E---------------------------|---------|---------------------------------|
Intro (rhytm guitar): 4x
E------|------|------|---------|
B------|------|------|---------|
G------|-7----|-8----|---------|
D-5----|-7----|-8----|-3-------|
A-5----|-5----|-6----|-3-------|
E-3----|------|------|-1---2~~-|
Verse:
E-------------|-------------|--------------|-------------|
B-------------|-------------|--------------|-------------|
G-----------7-|---------7-5-|---------10-7-|-----------7-|
D---5--5--3-7-|---5--5--7-5-|---5--5--10-7-|---5--5--3-7-|
A-x-5--5--3-5-|-x-5--5--5-3-|-x-5--5---8-5-|-x-5--5--3-5-|
E-x-3--3--1---|-x-3--3------|-x-3--3-------|-x-3--3--1---|
2x
E---------|---------|---------|---------|
B---------|---------|---------|---------|
G-5-------|-3-------|-8-------|-7-------|
D-5-------|-3-------|-8-------|-7-------|
A-3-------|-1-------|-6-------|-5-------|
E-----1~~-|-----3~~-|-----6~~-|-----2~~-|
Pre-chorus:
E-----------------|---------------|-----------------|---------------|
B-----------------|---------------|-----------------|---------------|
G-----------------|-7-----5-------|-7-------7-------|---------------|
D-5-------5-------|-7-----5-------|-7-------7-------|---------------|
A-5-------5---x-x-|-5-----3---x-x-|-5---5-5-5---7-7-|-3~~--2~~--x-x-|
E-3---3-3-3---x-x-|-----------x-x-|-------------5-5-|-----------x-x-|
PM-| PM-|
E-----------------|-----------------|-----------------|-----------------|
B-----------------|-----------------|-----------------|-----------------|
G-----------------|-----------------|-----------------|-----------------|
D-----------------|-----------------|-----------------|-----------------|
A---------------5-|-3-3-3-2-0-0-3-0-|---------5-5-5-5-|-------3-5-5-3-3-|
E-3-3-3-2-0-0-0---|-----------------|-3-3-3-3---------|-3-3-3-----------|
PM-------------------------------------------------------------------|
Chorus:
E-----------|-------------|-----------|---------------------------------|
B-----------|-------------|-----------|---------------------------------|
G------5----|-7-----------|------5----|---------------------------------|
D-5----5----|-7-----------|-2----5----|-------------------------7-7-7-7-|
A-5----3----|-5-----------|-2----3----|-5-5-5-5-7-7-7-7-9-9-9-9---------|
E-3---------|-----5-3~~-2-|-0---------|---------------------------------|
PM-----------------------------|
E-----------|-------------|-----------|---------------------------------|
B-----------|-------------|-----------|---------------------------------|
G------5----|-7-----------|-5----7----|-----9-------9-------9-------9---|
D-5----5----|-7-----------|-5----7----|-----9-------9-------9-------9---|
A-5----3----|-5-----------|-3----5----|-----7-------7-------7-------7---|
E-3---------|----5--3~~-2-|-----------|-0-0-----0-0-----0-0-----0-0-----|
PM-| PM-| PM-| PM-|
E-----------|-----------|
B-----------|-----------|
G-5----7----|-----5-7---|
D-5----7----|-5---5-7---|
A-3----5----|-5---3-5---|
E-----------|-3---------|
Before solo:
E-----------|
B-----------|
G-5---7-9---|
D-5---7-9---|
A-3---5-7---|
E-----------|
Solo section:
Note: Solos 4 & 5 are correct, solo 2 is 80% correct, there are just bits of
solo 1 because of the speed (I improvise and you should do the same if you
are good enough) and solo 3 is a mess too but better than nothing.
If any of you shreds out there know it the right way, let me know!!!
Solo 1:
E-22b(24)~~---------------|------------------------|
B-----------15b(17)-15-13-|-12h13p12---------------|
G-------------------------|----------14-12-11-etc.-|
D-------------------------|------------------------|
A-------------------------|------------------------|
E-------------------------|------------------------|
E---------------------------|-12h15p12-----------------------------------|
B---------------------------|---------12-----------12h15h12--------------|
G---------------------------|-----------12--------x--------12------------|
D---------------------------|-------------14-----x-----------12----------|
A-14-12---------------------|---------------14--x--------------14--------|
E-------15-14-12-14-15-etc.-|-----------------15-----------------15-etc.-|
PM------------------|
E----------------------12-|-17b(19)---17-15-14--------|--------------|
B-------------------12----|---------------------17-17-|-17~~-etc.----|
G-12------------12-------|---------------------------|--------------|
D-12---------14----------|---------------------------|--------------|
A----------14-------------|---------------------------|--------------|
E-------12----------------|---------------------------|--------------|
Solo 2:
E---------------------------------|------------------------------------|
B-5-0-0-7-0-0-8-0-0-5-0-0-7-0-8-0-|-12-10-8-7-10-8-7-5-8-7-5-3-7-5-3---|
G---------------------------------|----------------------------------5-|
D---------------------------------|------------------------------------|
A---------------------------------|------------------------------------|
E---------------------------------|------------------------------------|
E---------------------------------------|
B-7-0-0-8-0-0-10-0-0-12-0-0-17-15-13-12-|
G---------------------------------------|
D---------------------------------------|
A---------------------------------------|
E---------------------------------------|
1.,3. 2.,4.
E-------------------------------------------------|-------------------------|
B-15-13-12----------12-13-17-15-13----------13-15-|-12----------13----------|
G----------14-12-14----------------16-14-16-------|-----12----------14------|
D-------------------------------------------------|---------14----------16--|
A-------------------------------------------------|-------------------------|
E-------------------------------------------------|-------------------------|
Solo 3:
E------------------------------------|-------------------------------------|
B-5-0-0-7-0-0-8-0-0-5-0-0-12-10-8----|-7-0-0-8-0-0-10-0-0-7-0-0-12-10-8----|
G---------------------------------11-|----------------------------------11-|
D------------------------------------|-------------------------------------|
A------------------------------------|-------------------------------------|
E------------------------------------|-------------------------------------|
E--------------------------------------|------------------------|
B-9-0-0-10-0-0-12-0-0-9-0-0-12-10-9----|-12-0-0-13-0-0-15~~-----|
G-----------------------------------11-|------------------------|
D--------------------------------------|------------------------|
A--------------------------------------|------------------------|
E--------------------------------------|------------------------|
E-----------------------------------------|-----------------------------------------|
B-12-0-0-13-0-0-15-0-0-12-0-0-17-15-13----|-13-0-0-15-0-0-17-0-0-13-0-0-17-15-13----|
G--------------------------------------16-|--------------------------------------16-|
D-----------------------------------------|-----------------------------------------|
A-----------------------------------------|-----------------------------------------|
E-----------------------------------------|-----------------------------------------|
E-----------------------------------------|------------------------|
B-14-0-0-15-0-0-17-0-0-14-0-0-17-15-14----|-15-0-0-17-0-0-19~~-----|
G--------------------------------------16-|------------------------|
D-----------------------------------------|------------------------|
A-----------------------------------------|------------------------|
E-----------------------------------------|------------------------|
Solo 4:
E---------------------------------|-------------------|
B-5-0-0-7-0-0-8-0-0-5-0-0-7-0-8-0-|-10~~---7-7-7------|
G---------------------------------|----------------7--|
D---------------------------------|-------------------|
A---------------------------------|-------------------|
E---------------------------------|-------------------|
E------------------|------------------|-------------------|
B-12~~---7-7-7-----|-12~~---8-8-8-----|-14~~---9-9-9------|
G---------------8--|---------------9--|---------------10--|
D------------------|------------------|-------------------|
A------------------|------------------|-------------------|
E------------------|------------------|-------------------|
E----------------------|----------------|
B-14~~---10-10-10------|-15~~-----15-17-|
G------------------11--|----------------|
D----------------------|----------------|
A----------------------|----------------|
E----------------------|----------------|
E-----------------------------------------|---------------------------------|
B-14-15-12-14-10-12-8-10-7-8--------------|---------------------------------|
G----------------------------9-11-7-9-6-7-|-4-6-----------------------------|
D-----------------------------------------|-----7-9-5-7-4-5-----------------|
A-----------------------------------------|-----------------7-9-5-7-4-5-2-4-|
E-----------------------------------------|---------------------------------|
Solo 5:
E------------------|----------------------------|--------------------|------------|
B------------------|--------10b(12)-10~~--10-12-|-12b(14)~~~~r-12-10-|-12---------|
G-------9b(11)~~~r-|-9--11----------------------|--------------------|----9--9~~--|
D-7~~--------------|----------------------------|--------------------|------------|
A------------------|----------------------------|--------------------|------------|
E------------------|----------------------------|--------------------|------------|
E---------------------------|------------------------|
B-15b(17)~~--(17)-(17)-(17)-|-(17)~~~---14-15-14~~---|
G---------------------------|------------------------|
D---------------------------|------------------------|
A---------------------------|------------------------|
E---------------------------|------------------------|
E---------------------------------|---------------------------------|
B---------------------------------|---------------------------------|
G---------------------------------|-------------6-7-9-7-6-----------|
D-------------6-7-9-7-6-----------|-------6-7-9-----------9-7-6-----|
A-------5-7-9-----------9-7-5-----|-5-7-9-----------------------9-7-|
E-5-7-9-----------------------9-7-|---------------------------------|
PM-------------------------------------------|
E----------------------------------|-10-9-7------------12-10-9--------------|
B-------------7-9-10-9-7-----------|--------10-9-7-------------12-10-9------|
G-------6-7-9------------9-7-6-----|---------------9-7-----------------11-9-|
D-6-7-9------------------------9-7-|----------------------------------------|
A----------------------------------|----------------------------------------|
E----------------------------------|----------------------------------------|
E-19-0-0-0-17-0-0-0-16-0-0-0-14-0-0-0-|-12-0-0-0-10-0-0-0-9-0-0-0-7-5-4-7-|-5~~~--|
B-------------------------------------|-----------------------------------|-------|
G-------------------------------------|-----------------------------------|-------|
D-------------------------------------|-----------------------------------|-------|
A-------------------------------------|-----------------------------------|-------|
E-------------------------------------|-----------------------------------|-------|
Final Chorus:
E-----------|-------------|-------------|------------------------------------|
B-----------|-------------|-------------|------------------------------------|
G------7----|-9-----------|--------7----|------------------------------------|
D-7----7----|-9-----------|---4----7----|----------------------------9-9-9-9-|
A-7----5----|-7-----------|---4----5----|-7-7-7-7-9-9-9-9-11-11-11-11--------|
E-5---------|-----7-5~~-4-|-2-2---------|------------------------------------|
PM PM--------------------------------|
E-----------|-------------|-----------|---------------------------------|
B-----------|-------------|-----------|---------------------------------|
G------7----|-9-----------|-7----9----|---------------------------------|
D-7----7----|-9-----------|-7----9----|-----4-------4-------4-------4---|
A-7----5----|-7-----------|-5----7----|-----4-------4-------4-------4---|
E-5---------|----7--5~~-4-|-----------|-2-2-2---2-2-2---2-2-2---2-2-2---|
PM-| PM-| PM-| PM-|
E-----------|-----------|
B-----------|-----------|
G-7----9----|-----7-9---|
D-7----9----|-7---7-9---|
A-5----7----|-7---5-7---|
E-----------|-5---------|
Outro solo:
E--------------------|-------------------|
B-9b(10)--9--7-7~~---|-------------------|
G--------------------|-7b(9)--7--6-6~~---|
D--------------------|-------------------|
A--------------------|-------------------|
E--------------------|-------------------|
E------------------------|----------|-------||
B-9b(10)----9-7----------|----------|-------||
G---------------6~~------|----------|-------||
D--------------------7-6-|-4~~~-----|-4---||
A------------------------|----------|-4---||
E------------------------|----------|-2---||
Note: This tab took me an awful lot of time to transcribe, but I guess I owed it
to many of you out there fond of Helloween. In three days I will see them live
in full glamour in Senec, Slovakia and I am sure looking fucking forward!!!
Please let me know, whether you liked this one or the others or not, I will
truly appreciate it!
Happy happy Helloween!!!


Ваше мнение



Капча