Starlight by Helloween
Transcribed by Vinicius Neves ([email protected])
ONLY BASS TABS - http://basstabs.cjb.net
Tuning: E A D G
Intro
|---------|--------|
|---------|--------|
|--7------|--------|
|---------|--------|
|-------|-------|-------|----------------|
|-------|-------|-------|----------------|
|--7----|--3----|--5----|--7--5--3--2/7--|
|-------|-------|-------|----------------|
|--------|--------|
|--------|--------|
|--7-7---|--------|
|--------|--------|
|----------------------------|----------------------------|
|----------------------------|----------------------------|
|------7--5---3--2h3p3-------|------7--5---3--2h3p2-------|
|--0-0------0----------3--2--|--0-0------0----------3--2--|
|----------------------------|----------------------------|
|----------------------------|----------------------------|
|------7--5---3--2h3p3-------|------7--5---3--2h3p2-------|
|--0-0------0----------3--2--|--0-0------0----------3--2--|
|----------------------------|----------------|
|----------------------------|----------------|
|------7--5---3--2h3p3-------|------7--5---3--|
|--0-0------0----------3--2--|--0-0------0----|
Verse
|--------------------------------------------|
|--------------------------------------------|
|--------------------------------------------|
|--0-----0--0--0--0--0--0-----0-----0-----0--|
|--------------------------------------------|
|--------------------------------------------|
|--5-----5--5--5--5--5--5-----5-----5-----5--|
|--------------------------------------------|
|--------------------------------------------|
|--------------------------------------------|
|--------------------------------------------|
|--3-----3--3--3--3--3--3-----3-----3-----3--|
|--------------------------------------------|
|--------------------------------------------|
|--5-----5--5--5--5--5--5-----5-----5-----5--|
|--------------------------------------------|
|---------------------------------------4--4--5--|
|---------------------4--4--5--5--7--7-----------|
|---3--3--5--5--7--7-----------------------------|
|------------------------------------------------|
|---------------------------------------5--5--7--7--|
|---------------------5--5--7--7--9--9--------------|
|---5--5--7--7--9--9--------------------------------|
|---------------------------------------------------|
|--7--5-------------------|
|-------7--5--4-----------|
|----------------7--5--3--|
|-------------------------|
|--------------------------------------------|
|--------------------------------------------|
|--------------------------------------------|
|--0-----0--0--0--0--0--0-----0-----0-----0--|
|--------------------------------------------|
|--------------------------------------------|
|--5-----5--5--5--5--5--5-----5-----5-----5--|
|--------------------------------------------|
|--------------------------------------------|
|--------------------------------------------|
|--------------------------------------------|
|--3-----3--3--3--3--3--3-----3-----3-----3--|
|--------------------------------------------|
|--------------------------------------------|
|--5-----5--5--5--5--5--5-----5-----5-----5--|
|--------------------------------------------|
|---------------------------------------4--4--5--|
|---------------------4--4--5--5--7--7-----------|
|---3--3--5--5--7--7-----------------------------|
|------------------------------------------------|
|---------------------------------------5--5--7--7--|
|---------------------5--5--7--7--9--9--------------|
|---5--5--7--7--9--9--------------------------------|
|---------------------------------------------------|
|--7--5-------------------|
|-------7--5--4-----------|
|----------------7--5--3--|
|-------------------------|
Bridge
|--------------2--4--------------------|
|-----2--4--5--------5--4--2-----------|
|--5--------------------------5--3--2--|
|--------------------------------------|
|--------------2--4--------------------|
|-----2--4--5--------5--4--2-----------|
|--5--------------------------5--3--2--|
|--------------------------------------|
|--------------2--4--------------------|
|-----2--4--5--------5--4--2-----------|
|--5--------------------------5--3--2--|
|--------------------------------------|
|--------------2--4----------------------|
|-----2--4--5--------4-4--2-2------------|
|--5---------------------------5-5--4-4--|
|----------------------------------------|
Chorus
|-----------------------------------------------|
|-----------------------------------------------|
|-----------------------------------------------|
|--0-----0--0--0--0--0--0--0--0--0--0--0--0--3--|
|--------------------------------------------|
|--------------------------------------------|
|--3-----3--3--3--3--3--3--3--3--3--3--3--3--|
|--------------------------------------------|
|-----------------------------------------|
|-----------------------------------------|
|------5--5--5--5--5--5--5-----5---7---9--|
|---5-------------------------------------|
|----------------------------------|
|----------------------------------|
|----------------------------------|
|--0--0--0--0--0--0--0--7---5---3--|
|------------------------------------------|
|------------------------------------------|
|------------------------------------------|
|--0---0--0--0--0--0--0--0--0--0--0--0--7--|
|-----------------------------------------|
|-----------------------------------------|
|-----------------------------------------|
|--5--5--5--5--5--5--5--5--5--5--5--5--5--|
|---------|--------------------------------|
|---------|--------------------------------|
|---------|--------------------------------|
|--8---7--|--0--0--0--0--0--0--0--0--0--0--|
Verse
|--------------------------------------------|
|--------------------------------------------|
|--------------------------------------------|
|--0-----0--0--0--0--0--0-----0-----0-----0--|
|--------------------------------------------|
|--------------------------------------------|
|--5-----5--5--5--5--5--5-----5-----5-----5--|
|--------------------------------------------|
|--------------------------------------------|
|--------------------------------------------|
|--------------------------------------------|
|--3-----3--3--3--3--3--3-----3-----3-----3--|
|--------------------------------------------|
|--------------------------------------------|
|--5-----5--5--5--5--5--5-----5-----5-----5--|
|--------------------------------------------|
|---------------------------------------4--4--5--|
|---------------------4--4--5--5--7--7-----------|
|---3--3--5--5--7--7-----------------------------|
|------------------------------------------------|
|---------------------------------------5--5--7--7--|
|---------------------5--5--7--7--9--9--------------|
|---5--5--7--7--9--9--------------------------------|
|---------------------------------------------------|
|--7--5-------------------|
|-------7--5--4-----------|
|----------------7--5--3--|
|-------------------------|
|--------------------------------------------|
|--------------------------------------------|
|--------------------------------------------|
|--0-----0--0--0--0--0--0-----0-----0-----0--|
|--------------------------------------------|
|--------------------------------------------|
|--5-----5--5--5--5--5--5-----5-----5-----5--|
|--------------------------------------------|
|--------------------------------------------|
|--------------------------------------------|
|--------------------------------------------|
|--3-----3--3--3--3--3--3-----3-----3-----3--|
|--------------------------------------------|
|--------------------------------------------|
|--5-----5--5--5--5--5--5-----5-----5-----5--|
|--------------------------------------------|
|---------------------------------------4--4--5--|
|---------------------4--4--5--5--7--7-----------|
|---3--3--5--5--7--7-----------------------------|
|------------------------------------------------|
|---------------------------------------5--5--7--7--|
|---------------------5--5--7--7--9--9--------------|
|---5--5--7--7--9--9--------------------------------|
|---------------------------------------------------|
|--7--5-------------------|
|-------7--5--4-----------|
|----------------7--5--3--|
|-------------------------|
Bridge
|--------------2--4--------------------|
|-----2--4--5--------5--4--2-----------|
|--5--------------------------5--3--2--|
|--------------------------------------|
|--------------2--4--------------------|
|-----2--4--5--------5--4--2-----------|
|--5--------------------------5--3--2--|
|--------------------------------------|
|--------------2--4--------------------|
|-----2--4--5--------5--4--2-----------|
|--5--------------------------5--3--2--|
|--------------------------------------|
|--------------2--4----------------------|
|-----2--4--5--------4-4--2-2------------|
|--5---------------------------5-5--4-4--|
|----------------------------------------|
Chorus
|-----------------------------------------------|
|-----------------------------------------------|
|-----------------------------------------------|
|--0-----0--0--0--0--0--0--0--0--0--0--0--0--3--|
|--------------------------------------------|
|--------------------------------------------|
|--3-----3--3--3--3--3--3--3--3--3--3--3--3--|
|--------------------------------------------|
|-----------------------------------------|
|-----------------------------------------|
|------5--5--5--5--5--5--5-----5---7---9--|
|---5-------------------------------------|
|----------------------------------|
|----------------------------------|
|----------------------------------|
|--0--0--0--0--0--0--0--7---5---3--|
|------------------------------------------|
|------------------------------------------|
|------------------------------------------|
|--0---0--0--0--0--0--0--0--0--0--0--0--7--|
|-----------------------------------------|
|-----------------------------------------|
|-----------------------------------------|
|--5--5--5--5--5--5--5--5--5--5--5--5--5--|
|---------|--------------------------------|
|---------|--------------------------------|
|---------|--------------------------------|
|--8---7--|--0--0--0--0--0--0--0--0--0--0--|
Solo
|------------------------------------------------------------------------------------------------|
|--------------------------5--5-5-5-5------------------------------------------------------------|
|--5--5-5-5-5--7--7-7-7-7--------------3--3-3-3-3--5--5-5-5-5-------------------------5--3--2----|
|--------------------------------------------------------------3--3-3-3-3--5--5-5-5-5----------5--|
|--------------------------------------------------------------------------------------|
|--------------------------5--5-5-5-5--------------------------------------------------|
|--5--5-5-5-5--7--7-7-7-7--------------3--3-3-3-3--5--5-5-5-5--------------------------|
|--------------------------------------------------------------3--3-3-3-3--5--5-5-5-5--|
|----------------------------|
|----------------------------|
|--5--5-5-5-5-5-5-5-5--5--6--|
|----------------------------|
|-------------------------------|
|-------------------------------|
|--7--7-7-7-7-7---5--5-5-5-5-5--|
|-------------------------------|
|-------------------------------|
|-------------------------------|
|--7--7-7-7-7-7---5--5-5-5-5-5--|
|-------------------------------|
|-------------------------------|
|-------------------------------|
|--7--7-7-7-7-7---5--5-5-5-5-5--|
|-------------------------------|
|-------------------------------|
|-------------------------------|
|--7--7-7-7-7-7---5--5-5-5-5-5--|
|-------------------------------|
|--------------------------------------------|
|--------------------------------------------|
|--------------------------------------------|
|--0-----0--0--0--0--0--0-----0-----0-----0--|
|--------------------------------------------|
|--------------------------------------------|
|--5-----5--5--5--5--5--5-----5-----5-----5--|
|--------------------------------------------|
|--------------------------------------------|
|--------------------------------------------|
|--------------------------------------------|
|--3-----3--3--3--3--3--3-----3-----3-----3--|
|--------------------------------------------|
|--------------------------------------------|
|--5-----5--5--5--5--5--5-----5-----5-----5--|
|--------------------------------------------|
|---------------------------------------4--4--5--|
|---------------------4--4--5--5--7--7-----------|
|---3--3--5--5--7--7-----------------------------|
|------------------------------------------------|
|---------------------------------------5--5--7--7--|
|---------------------5--5--7--7--9--9--------------|
|---5--5--7--7--9--9--------------------------------|
|---------------------------------------------------|
|--7--5-------------------|
|-------7--5--4-----------|
|----------------7--5--3--|
|-------------------------|
|--------------------------------------------|
|--------------------------------------------|
|--------------------------------------------|
|--0-----0--0--0--0--0--0-----0-----0-----0--|
|--------------------------------------------|
|--------------------------------------------|
|--5-----5--5--5--5--5--5-----5-----5-----5--|
|--------------------------------------------|
|--------------------------------------------|
|--------------------------------------------|
|--------------------------------------------|
|--3-----3--3--3--3--3--3-----3-----3-----3--|
|--------------------------------------------|
|--------------------------------------------|
|--5-----5--5--5--5--5--5-----5-----5-----5--|
|--------------------------------------------|
|---------------------------------------4--4--5--|
|---------------------4--4--5--5--7--7-----------|
|---3--3--5--5--7--7-----------------------------|
|------------------------------------------------|
|---------------------------------------5--5--7--7--|
|---------------------5--5--7--7--9--9--------------|
|---5--5--7--7--9--9--------------------------------|
|---------------------------------------------------|
|--7--5-------------------|
|-------7--5--4-----------|
|----------------7--5--3--|
|-------------------------|
Bridge
|--------------2--4--------------------|
|-----2--4--5--------5--4--2-----------|
|--5--------------------------5--3--2--|
|--------------------------------------|
|--------------2--4--------------------|
|-----2--4--5--------5--4--2-----------|
|--5--------------------------5--3--2--|
|--------------------------------------|
|--------------2--4--------------------|
|-----2--4--5--------5--4--2-----------|
|--5--------------------------5--3--2--|
|--------------------------------------|
|--------------2--4----------------------|
|-----2--4--5--------4-4--2-2------------|
|--5---------------------------5-5--4-4--|
|----------------------------------------|
Chorus
|-----------------------------------------------|
|-----------------------------------------------|
|-----------------------------------------------|
|--0-----0--0--0--0--0--0--0--0--0--0--0--0--3--|
|--------------------------------------------|
|--------------------------------------------|
|--3-----3--3--3--3--3--3--3--3--3--3--3--3--|
|--------------------------------------------|
|-----------------------------------------|
|-----------------------------------------|
|------5--5--5--5--5--5--5-----5---7---9--|
|---5-------------------------------------|
|----------------------------------|
|----------------------------------|
|----------------------------------|
|--0--0--0--0--0--0--0--7---5---3--|
|------------------------------------------|
|------------------------------------------|
|------------------------------------------|
|--0---0--0--0--0--0--0--0--0--0--0--0--7--|
|-----------------------------------------|
|-----------------------------------------|
|-----------------------------------------|
|--5--5--5--5--5--5--5--5--5--5--5--5--5--|
|---------|
|---------|
|---------|
|--8---7--|
|-----------------------------------------------|
|-----------------------------------------------|
|-----------------------------------------------|
|--0-----0--0--0--0--0--0--0--0--0--0--0--0--3--|
|--------------------------------------------|
|--------------------------------------------|
|--3-----3--3--3--3--3--3--3--3--3--3--3--3--|
|--------------------------------------------|
|-----------------------------------------|
|-----------------------------------------|
|------5--5--5--5--5--5--5-----5---7---9--|
|---5-------------------------------------|
|----------------------------------|
|----------------------------------|
|----------------------------------|
|--0--0--0--0--0--0--0--7---5---3--|
|------------------------------------------|
|------------------------------------------|
|------------------------------------------|
|--0---0--0--0--0--0--0--0--0--0--0--0--7--|
|-----------------------------------------|
|-----------------------------------------|
|-----------------------------------------|
|--5--5--5--5--5--5--5--5--5--5--5--5--5--|
|---------|------------------------|
|---------|------------------------|
|---------|-------3---2---7--5--7--|
|--8---7--|--0---------------------|




Ваше мнение



Капча