SOLE SURVIVOR - HELLOWEEN
Taken from High Live Album
Feb 5th 2003
Hi folks. My name is Eduardo Kepczynski and this is my first tab ever.
I had expend many hours listening to this song and trying to play it.
There is little differences between the live and the studio version.
Iґm sure itґs not perfect, but it was the most i could do.
It will help everyone who wants to play this awesome song.
Feel free to add some hammer on, pull off and palm mute. Improvisation rules.
Sorry, the solo is missing.
Tune down 1/2 step.
Any doubt or corrections, please send me an e-mail at
[email protected]
Iґll apreciate.
PM = Palm Mute
~ = Vibrato
h = Hammer on
p = Pull off
= Slide down
/ = Slide up
b = Bend
rb = Release Bend

Intro
e|-------------------------------------|------------------------------------------
B|-------------------------------------|------------------------------------------
G|-------------------------------------|------------------------------------------
D|---9--7--9--12--7--9--7--5-----5-----|---9--7--9--12--7--9--9--7-----7----------
A|---7--5--7--10--5--7--5--3-----3-----|---7--5--7--10--5--7--7--5-----5----------
E|-------------------------------------|------------------------------------------
Fast lick (Iґm not too sure about this. It is different in the studio version)
PM |-------------------------------|
e|--------------------------------------------------------------------------------
B|---------------------------------------------15p13p12-10-12----10---------------
G|-----------------------------------12~----11----------------11----9-11-9~-9~----
D|-------------------12-10-9------------------------------------------------------
A|---12-10-9-----------------12-10-9----------------------------------------------
E|-----------12-10-8--------------------------------------------------------------

e|--------------------------------------------------------------------------------
B|--10h12p10h12p10h12p10h12p10h12p10h12p10h12-------------------------------------
G|--------------------------------------------------------------------------------
D|--------------------------------------------------------------------------------
A|--------------------------------------------------------------------------------
E|--------------------------------------------------------------------------------

PM |-------------------------------|
e|--------------------------------------------------------------------------------
B|---------------------------------------------15p13p12-10-12----10---------------
G|-----------------------------------12~----11----------------11----9-12-11~-11~--
D|-------------------12-10-9------------------------------------------------------
A|---12-10-9-----------------12-10-9----------------------------------------------
E|-----------12-10-8--------------------------------------------------------------

e|--------------------------------------------------------------------------------
B|--10h12p10h12p10h12p10h12p10h12p10h12p10h12p10h12p10----------------------------
G|--------------------------------------------------------------------------------
D|--------------------------------------------------------------------------------
A|-----------------------------------------------------19------------------------
E|--------------------------------------------------------------------------------

PM |-------| |---| |-------| |---|
e|--------------------------------------|-----------------------------------------
B|--------------------------------------|-----------------------------------------
G|--------------------------------------|-----------------------------------------
D|--9---------9-----9-------------------|--5---------5-----5----------------------
A|--7-7-7-7-7-7-7-7-7-5-7-3-5-2-3---2---|--3-3-3-3-3-3-3-3-3-5-7-3-5-2-3---2------
E|--------------------------------5---3-|--------------------------------5---3----
Harmony. Play 2x
e|--------------------------------------------------------------------------------
B|--------------------------------------------------------------------------------
G|--12~---12~---12b(14)rb(12)---12~---11~----------------------------------------- 1st Guitar
D|--------------------------------------------------------------------------------
A|--10~---10~---10b(12)rb(10)---10~---9~------------------------------------------ 2nd Guitar
E|--------------------------------------------------------------------------------
Verse
PM|-----------------------| |-----------| |---| |-----------|
e|---------------------------|-----|-------------------------------------------------
B|---------------------------|-----|-------------------------------------------------
G|---------------------------|-0-/-|-------------------------------------------------
D|---------------------------|--/--|--------------5--------5----------------7---4-4--
A|---------------------------|-/-0-|--3-3-3-3-3-3-3----3-3-3----5-5-5-5-5-5-5---2-2--
E|---0-0-0-0-0-0-0-----0-0-0-|-----|-------------------------------------------------

Bridge
PM|---------------------------------------------------------------------------|
e|---------------------------------------------------------------------------------|
B|---------------------------------------------------------------------------------|
G|---------------------------------------------------------------------------------|
D|---------------------------------------------------------------------------------|
A|-----------5-5-5-5-3-3-3-3-3-3-3-3-3-3-3-3-3-3-3-3-5-5-5-5-7-7-7-7-10-10-10-10---|
E|---3-3-3-3-----------------------------------------------------------------------|
| |
| This part is not palm muted |
e|---------------------------------------------------------------------------------|
B|---------------------------------------------------------------------------------|
G|---------------------------------------------------------------------------------|
D|-------------------------------------------2-------4-------5-------9-------------|
A|---------------------------------------------------------------------------------|
E|---------------------------------------------------------------------------------|
PM|-------------------------------|
e|--------------------------------------------------------------------------------|
B|--------------------------------------------------------------------------------|
G|--------------------------------------------------------------------------------|
D|--------------------------------------------------------------------------------|
A|---3-3-3-3-7-7-7-7-5-5-5-5-5-5-5-5-5-7-3-5-2-3---2------------------------------|
E|-----------------------------------------------5--------------------------------|
| |
| | This part is played only after the solo. |
| This part is not palm muted | Iґm not too sure about the notes. |
e|---------------------------------|----------------------------------------------|
B|---------------------------------|----------------------------------------------|
G|---------------------------------|----------------------------------------------|
D|---------------------------------|----------------------------------------------|
A|---3-------7-------5-------------|-5-7-3-5-2-3---2------------------------------|
E|---------------------------------|-------------5---3-5-2-3-2-5-2-3--------------|
Chorus
PM|-------------| |-------| |-----------------|
e|--------------------------------------------------------------------------------
B|--------------------------------------------------------------------------------
G|--------------------------------------------------------------------------------
D|-----------------5------7-------------------------------------------------------
A|---------------0-3----0-5-5-5-5-5-7-9-5-7-3-5-2-3---2---------------------------
E|---0-0-0-0-0-3------------------------------------5---3-------------------------

Harmony (Play just once now)
Verse
Bridge
Chorus
Solo
Base 4x
PM|-------------------------|
e|-----------------------------|-----|-----|-------------------------------------------
B|-----------------------------|-----|-----|-------------------------------------------
G|-----------------------------|-0-/-|-0-/-|-------------------------------------------
D|-----------------------------|--/--|--/--|--5----------------------------------------
A|-----------------------------|-/-0-|-/-0-|--3----------------------------------------
E|---0-0-0-0-0-0-0-------0-0-0-|-----|-----|-------------------------------------------
Bridge (pay attention to the slight differences at the end of the bridge).
Chorus

PM |-------| |---| |-------| |---|
e|--------------------------------------|-----------------------------------------
B|--------------------------------------|-----------------------------------------
G|--------------------------------------|-----------------------------------------
D|--9---------9-----9-------------------|--5---------5-----5----------------------
A|--7-7-7-7-7-7-7-7-7-5-7-3-5-2-3---2---|--3-3-3-3-3-3-3-3-3-5-7-3-5-2-3---2------
E|--------------------------------5---3-|--------------------------------5---3----

Harmony (a little different now)
e|--------------------------------------------------------------------------------
B|--------------------------------------------------------------------------------
G|---12~------12--14--16--12--17--16--14--12--11--12--14~------------------------- 1st guitar
D|--------------------------------------------------------------------------------
A|---10~------10--12--14--10--15--14--12--10--09--10--12~------------------------- 2nd guitar
E|--------------------------------------------------------------------------------

End
PM |-------| |------| |-| |--|
e|--------------------------------------------------------------------------------|
B|--------------------------------------------------------------------------------|
G|--------------------------------------------------------------------------------|
D|---9---------9---------9----7---------------------------9---7-----5--2----------|
A|---7-7-7-7-7-7-7-7-7-7-7----5---------------------------7---5-----5--2----------|
E|----------------------------------------------------------0---0-0-3--0----------|
| |
| |
e|--------------------------------------------------------------------------------|
B|--------------------------------------------------------------------------------|
G|--------------------------------------------------------------------------------|
D|--------------------------------------------------------9---7-------------------|
A|--------------------------------------------------------7---5-----10-7----------|
E|----------------------------------------------------------0---0-0---------------|

Lyrics
I got that fever
Burning my head
So many memories
No tear to shed
Burns like a fire
Who stole my aims?
My comrade fighters
Been sent astray
How could i know
What others had in mind for me?
How would they know
What measures i take?
Sole survivor
Of a kill without alert
Sing your feelings out
Your songs remains unheard
Sole survivor
We shared like brothers
A light in the black
Totally blended
Bold and erect
But weґve grown intriguers
Till itґs too late
Time has brought fire
Fear, greed and hate
Now Iґm cryinґ
Shattered on the ground
All I find
Has died anyway
Sole survivor
Of a kill without alert
Sing your feelings out
Your songs remains unheard
Sole survivor
Got a voice without a sound
Mean mistreaters
Took away your ground
Sole survivor

HAPPY HAPPY HELLOWEEN !!!
Eddy Kep
[email protected]




Ваше мнение



Капча