Author/Artist: Helloween
Title: Ride The Sky
Album: Walls Of Jericho
Transcribed by: Аndrй Baida da Silva from BRAZIL
Email: [email protected]
Tune: E A D G
Intro.
G--------|-------------|------------------|-------------|----------|---
D--------|-------------|------------------|-------------|----------|---
A--------|------5-4----|--------5-4-------|------5-4----|--5-4-5/7-|---
E----2---|--5-4------2-|--5-4-5-----5---2-|--5-4------2-|----------|---

Fast Intro
G------------------------------------------------------------------------------
D------------------------------------------------------------------------------
A-----------------------------------------5-4----------------------------------
E----0-2-2-2-0-2-2-2-0-2-2-2-0-2-2-2--5-4-----0-2-2-2-0-2-2-2-0-2-2-2-0-2-2-2--

G------------------------------------------------------------------------------
D------------------------------------------------------------------------------
A---------5-4----------------------------------------5-4-----------------------
E---5-4-5-----5--0-2-2-2-0-2-2-2-0-2-2-2-0-2-2-2-5-4-----0-2-2-2-0-2-2-2-0-2---

G----------------------|---
D----------------------|---
A--------------5-4-5/7-|---
E-2-2-0-2-2-2----------|---

Vocals
G----------------------------------------------------------------------------------
D----------------------------------------------------------------------------------
A--------------------------------------------5-4-----------------------------------
E---0-2-2-2-0-2-2-2-0-2-2-2-0-2-2-2-0-2-2-2-------0-2-2-2-0-2-2-2-0-2-2-2-0-2-2----

G---------------------|---
D---------------------|---
A---------------5-4-5-|---
E-2--2-2--5-4-5-------|---

Bridge
G-------------------------------------------6-9-7-6--------6-9-7-6-------------
D-------6-9-----6-9-----6-9-----6-9-------7--------------7---------------6-9---
A---7-7-----7-7-----7-7-----7-7-------9-9------------9-9-------------7-7-------
E------------------------------------------------------------------------------

G-----------------------------------------9-7-6---7-6---6--|---
D-------6-9-----6-9-----6-9---------------------9-----9----|---
A---7-7-----7-7-----7-7------4-4-4-4-4-4-------------------|---
E----------------------------------------------------------|---

Bridge II
G------------------------------------------------------------------------------
D------------------------------------------------------------------------------
A---5-5-5-5-5-5-5-5-4-4---------------------7-7-7-7-7-7-7-7-5-5-4-4-4-4-4-4-4--
E-----------------------7-7-7-7-7-7-7-7-5-5------------------------------------

G-----------------------------------------------------------------6-7-6-----|--
D-------------------------------------------------------------7-9-------9-7-|--
A-4-----9-9-9-9-9-9-9-9-9-7-7-5-5-5-5-5-5-5-5-----4-4-4-4-4-4---------------|--
E---7-7---------------------------------------7-7---------------------------|--

Chorus.
G------------------------------------------------------------------------------
D------------------------------------------------------------------------------
A---2-2-2h4-4-4-4-4-4-4-4-4-4-2-2-2h4-4-4-4-4-4-4-4-4-4-4-4-4-4-4---2-2-2-2-2--
E------------------------------------------------------------------------------

G----------------------------------------------|---
D----------------------------------------------|---
A-2-2-2-----------------2h4-4-4-4-4-4-4-4--2---|---
E-------4-4-4-4-4-4-4-4------------------------|---

Repeat Fast Intro, Vocals, Bridge, Bridge II, Vocals and then:
2X.
G--------------------------------------------------------------------|---
D-----------------------------------------------------------11-9-7-6-|---
A--------------------------------------------------------------------|---
E---4-4-4-4-4-4-4-4-4-5-5-5-5-5-5-5-5-5-5-7-7-7-7-7-7-7-7-7----------|---

Solo.
G------------------------------------------------------------------------------
D------------------------------------------------------------------------------
A---7-7-7-7-7-7-7-7-7-7-7-7-7-7-7-7-7-7-7-7-2-2-2-2-2-2-2-2-2-2-2-2-2-2-2-7-7--
E------------------------------------------------------------------------------

G------------------------------------------------------------------------------
D------------------------------------------------------------------------------
A-7-7-7-7-7-7-7-7-7-7-7-2-2-2-2-2-2-2-2-2-2-2-2-2-2-2-3-3-3-3-3-3-3-3-5-5-5-5--
E------------------------------------------------------------------------------

G------------------------------------------------------------------------------
D-----------5-5-5-5-5-5-5-4-4-4-4-4-4-4-4-4-4-4-4-4-4-4-4-4-4-2-2-2-2-2-2-2-2--
A-5-5-5-5-5--------------------------------------------------------------------
E------------------------------------------------------------------------------

G---------------|---
D-2-2-2-2-2/5-4-|---
A---------------|---
E---------------|---

G-----------|-------|-----|-----|------------------------------------------||--
D-----------|-------|-----|-----|------------------------------------------||--
A---7---7-7-|-2-5-7-|-7-7-|-2-5-|--7-7-7-7-7-7-7-7-7-7-7-3-3-3-3-3-2-5-----||--
E-----------|-------|-----|-----|------------------------------------------||--

G---------------------------------------------||---
D---------------------------------------------||---
A---0-0-0-0-0-0-0-0-0-0-0-0-0-----------------||---
E-----------------------------1-1-1-1-0-0-3-3-||---

G------------------------------------------------------------------------------
D------------------------------------------------------------------------------
A----2-2-2-2-2-2-2-2-2-2-2-2-2-2-2-2-2-2-2-2-2-2-2-2-2-2-2--7-7-7-7-7-7-7-7----
E------------------------------------------------------------------------------

G------------------------------------------------------------------------------
D------------------------------------------------------------------------------
A-7-7-7-7--7-7-7-7-7-7--7-7-7-7-7-7--7-7-7-7-7-7--2-2---2-2-2-2-2--2-2-2-2-2---
E------------------------------------------------------------------------------

G------------------------------------|---
D------------------------------------|---
A-2-2-2-2-2-2--2-2-2-2--2-2-2-2-2-2--|---
E------------------------------------|---

G------------------------------------------||--
D------------------------------------------||--
A--7-7-7-7-7-7-7-7-7-7-7-3-3-3-3-3-2-5-----||--
E------------------------------------------||--
G-------------------------------------||---
D-------------------------------------||---
A---9-9-9-9-9-9-9-9-9-5-5-5-5-5-5-4-7-||---
E-------------------------------------||---

Then repeat Bridge II and Chorus.
End.




Ваше мнение



Капча