Author/Artist: Helloween
Title: Power
Album: The Time Of The Oath
Transcribed by: Аndrй Baida da Silva from BRAZIL
Email: [email protected]
Tune: Half-Step Down
Intro
Gb----------------------------------------------|---
Db----------------------------------------3-2---|---
Ab---0-0-0-0-0---0-0-0-0-0---0-0-0-0-0--------3-|---
Eb-------------3-----------3-----------3--------|---

Solo Intro.
Gb--------------------------------------2--------5-----5----------2-------------
Db----3-----3--------------5-----5--------5-2--3---3-3---3-3--3-5----3-3-3-3-2--
Ab--1---1-1---1-1-1-3-5--3---3-3---3-3------------------------------------------
Eb------------------------------------------------------------------------------

Gb---------------------------------------7-----7--------------------------------
Db-2-2-2-----------3-----3-------------5---5-5---5-5--8-7------7-----7----------
Ab--------5-3-0--1---1-1---1-1--1-3-5---------------------8--5---5-5---5-5-5-7--
Eb------------------------------------------------------------------------------

Gb---------------|---
Db---7-5---------|---
Ab-8-----8-7-3-0-|---
Eb---------------|---

Vocals
Gb------------------------------------------------------------------------------
Db------------------------------------------------------------------------------
Ab---5-5-5-5-5-5-5-5-5-5-1-1-1-1-1-1-1-1-1-3-3-3-3-3-3-3-3----------------------
Eb---------------------------------------------------------1-1-1-1-1-0-0-0-0-0--

Gb------------------------------------------------------------------------------
Db------------------------------------------------------------------------------
Ab---5-5-5-5-5-5-5-5-7-8-1-1-1-1-1-1-1-1-1-----------------------5-5-5-5-5-5-5--
Eb-----------------------------------------3-3-3-3-3-3-0-0-0-0-0----------------

Gb---------|---
Db---7-----|---
Ab-----8-7-|---
Eb---------|---

Bridge.
Gb---------------------------------------------------------------2----------5---
Db-----7-----7-----8-7-5-3----3-----3-----5-3-2-3----5-----5-------5-3-2--3-----
Ab---5---5-5---5-5----------1---1-1---1-1----------3---3-3---3-3----------------
Eb------------------------------------------------------------------------------

Gb---5---4---4----------------------------7-----7-------------------------------
Db-3---2---2------7-----7------8-7-5----5---5-5---5-5--5----------5-----5-------
Ab--------------5---5-5---5-5--------8-------------------8-7-8--3---3-3---3-3---
Eb------------------------------------------------------------------------------

Gb---2---------------------------|---
Db-----5-3-2---------------3-2---|---
Ab------------0-0-0-0-0--------3-|---
Eb----------------------3--------|---

Chorus.
Gb--------------------------------------2--------5-----5----------2-------------
Db----3-----3--------------5-----5--------5-2--3---3-3---3-3--3-5----3-3-3-3-2--
Ab--1---1-1---1-1-1-3-5--3---3-3---3-3------------------------------------------
Eb------------------------------------------------------------------------------

Gb---------------------------------------7-----7--------------------------------
Db-2-2-2-----------3-----3-------------5---5-5---5-5--8-7------7-----7----------
Ab--------5-3-0--1---1-1---1-1--1-3-5---------------------8--5---5-5---5-5-5-7--
Eb------------------------------------------------------------------------------

Gb---------------|---
Db---7-5---------|---
Ab-8-----8-7-3-0-|---
Eb---------------|---
Repeat Vocals, Bridge and Chorus then:
Solo
Gb------------------------------------------------------------------------------
Db------------------------------------------------------------------------------
Ab---5-5-5-5-5-5-5-5-1-1-1-1-1-1-1-1-----------------------3-3-3-3-5-5-5-5-5-5--
Eb-----------------------------------3-3-3-3-3-3-3-1-1-1-1----------------------

Gb-----------------------------------------|---
Db-----------------------------------------|---
Ab-1-1-1-1-1---------------3-3-3-3-3-3-3-3-|---
Eb-----------3-3-3-3-3-3-3-----------------|---

Gb---------------------------------------------------------------2----------5---
Db-----7-----7-----8-7-5-3----3-----3-----5-3-2-3----5-----5-------5-3-2--3-----
Ab---5---5-5---5-5----------1---1-1---1-1----------3---3-3---3-3----------------
Eb------------------------------------------------------------------------------

Gb---5---4---4----------------------------7-----7-------------------------------
Db-3---2---2------7-----7------8-7-5----5---5-5---5-5--5----------5-----5-------
Ab--------------5---5-5---5-5--------8-------------------8-7-8--3---3-3---3-3---
Eb------------------------------------------------------------------------------

Gb---2---------------------------|---
Db-----5-3-2---------------3-2---|---
Ab------------0-0-0-0-0--------3-|---
Eb----------------------3--------|---
Gb------------------------------------------------------------------------------
Db------------------------------------------------------------------------------
Ab---5-5-5-5-5-5-5-5-1-1-1-1-1-1-1-1-----------------------3-3-3-3-5-5-5-5-5-5--
Eb-----------------------------------3-3-3-3-3-3-3-1-1-1-1----------------------

Gb-----------------------------------------|---
Db-----------------------------------------|---
Ab-1-1-1-1-1---------------3-3-3-3-3-3-3-3-|---
Eb-----------3-3-3-3-3-3-3-----------------|---
Chorus II.
Gb--------------------------------------2--------5-----5----------2-------------
Db----3-----3--------------5-----5--------5-2--3---3-3---3-3--3-5----3-3-3-3-2--
Ab--1---1-1---1-1-1-3-5--3---3-3---3-3------------------------------------------
Eb------------------------------------------------------------------------------

Gb---------------------------------------7-----7--------------------------------
Db-2-2-2-----------3-----3-------------5---5-5---5-5--8-7------7-----7----------
Ab--------5-3-0--1---1-1---1-1--1-3-5---------------------8--5---5-5---5-5-5-5--
Eb------------------------------------------------------------------------------

Gb--7-5---------------------------------------------------|---
Db------7--3-2--------------------------------------------|---
Ab-------------3---(1)----(3)-----(0)------5-5-5-5-5-3-5--|---
Eb--------------------------------------------------------|---
End.




Ваше мнение



Капча