---=== Jussi Finnila, [email protected] ===---
---=== http://kuovi.oulunsalo.fi/~jaf/ ===---



HELLOWEEN: Pink Bubbles Go Ape
from album 'Pink bubbles go ape'

tabbed by: Jussi Finnila
[email protected]


intro
|-----------------|
|-----------------|
|---9---9---9---9-|
|---9---9---9---9-|
|-7-------7-------|
|-----7-------7---|

verse
|---------------------------------------------------------------------------|
|---------------------------------------------------------------------------|
|---9---9---9---9---8---8---8---8---9---9---9---9---8---8---9-9-------------|
|---9---9---9---9---9---9---9---9---9---9---9---9---9---9---9-9-------------|
|-7-------7-------9-------9-------7-------7-------9-------7-----------------|
|-----7-------7-------7-------7-------7-------7-------9---------------------|


Some people are much too smart
They know everything before it starts
Eating wisdom with the pail
No wonder when it sticks

B B F# B a: 2
In your darkest hour I will sing this song for you e: 5 4 2

E B
Cry and tell and slander yell
A F# B
and grumble well so loud for heaven's sake
E (pick this chord backwards)
Pink bubbles go ape!




Ваше мнение



Капча