Perfect Gentleman

Intro: played with pan flute
E--|----h----------------------------------
B--|--14^15--15--14-------h----------------
G--|----------------16--14^16-16---h-------
D--|-----------------------------14^16-16--
A--|---------------------------------------
E--|---------------------------------------

E--|----h----------------------------------
B--|--14^15--15--14-------h----------------
G--|----------------16--14^16-16---h-------
D--|-----------------------------14^16-16--
A--|---------------------------------------
E--|---------------------------------------
|
E--|---------------------------------------
B--|---------------------------------------
G--|---------------------------------------
D--|--9---------------------9--9--7--------
A--|--9---------------------9--9--7--------
E--|--7---------------------7--7--5--------

E--|----h----------------------------------
B--|--14^15--15--14-------h----------------
G--|----------------16--14^16-16---h-------
D--|-----------------------------14^16-16--
A--|---------------------------------------
E--|---------------------------------------
|
E--|---------------------------------------
B--|---------------------------------------
G--|---------------------------------------
D--|-5-------------------------------------
A--|-5-----------------2-0---------2-0-----
E--|-3-----------0-2-3-----3-0-2-3-----3---

E--|----h----------------------------------
B--|--14^15--15--14-------h----------------
G--|----------------16--14^16-16---h-------
D--|-----------------------------14^16-16--
A--|---------------------------------------
E--|---------------------------------------
|
E--|---------------------------------------
B--|---------------------------------------
G--|---------------------------------------
D--|--9---------------------9--9--7--------
A--|--9---------------------9--9--7--------
E--|--7---------------------7--7--5--------

E--|----h----------------------------------
B--|--14^15--15--14-------h----------------
G--|----------------16--14^16-16---h-------
D--|-----------------------------14^16-16--
A--|---------------------------------------
E--|---------------------------------------
|
E--|---------------------------------------
B--|---------------------------------------
G--|---------------------------------------
D--|-5-------------------------------------
A--|-5-----------------2-0---------2-0-----
E--|-3-----------0-2-3-----3-0-2-3-----3---

E--|-5-------------------------------7--------------------------
B--|-5-------------------------------8--------------------------
G--|-6-------------------------------9--------------------------
D--|-7-------------------------------9--------------------------
A--|-7-------------------------------7--------------------------
E--|-5-------------------------------0--------------------------
There is no doubt about it I'm one of a kind ba-by

E--|-5-------------------------------7--------------------------
B--|-5-------------------------------8--------------------------
G--|-6-------------------------------9--------------------------
D--|-7-------------------------------9--------------------------
A--|-7-------------------------------7--------------------------
E--|-5-------------------------------0--------------------------

[email protected]




Ваше мнение



Капча