Helloween - Open Your Life
from the Rabbit Donґt Come Easy Record
tabbed by [email protected] (Eddie)
Note: This is yet another great song from one of the best metal records ever
(I really mean it!), great lyrics, sounds awsome while played live. This is
by the way my own version and it doesnґt necessary corespond the recording
so if you know it better let me know! As usually, have fun!!!
Intro (Sascha): 5x
E-----------------------------------|
B-6/10-----108-----86-----65-5---|
G-7/10-----109-----97-----------7-|
D------0-0------0-0-----0-0---------|
A-----------------------------------|
E-----------------------------------|
PM-| PM-| PM-|
Guitar 2 (Weiki) joins in on the third time w/ this:
E-----------|-------------|----------|---------------|
B-----------|-------------|----------|---------------|
G-7---------|-------5-----|-7--------|---------------|
D-7---------|-3-----5-----|-7--------|-3-------5-5---|
A-5---------|-3-----3-----|-5--------|-3-------3-3---|
E-----------|-1-----------|----------|-1-------------|
Pre-verse:
E-5--------|----------|
B-6--------|----------|
G-7--------|----------|
D-7--------|----------|
A-5--------|----------|
E----------|----------|
Do you know what there is just behing your wall?
E------------------------------|------------------------|
B-6------10--------6---------8-|-6-------5-------6------|
G-7------10--------7---------9-|-7-------5-------7------|
D-7------10--------7---------9-|-7-------5-------7------|
A-5-------8--------5---------7-|-5-------3-------5------|
E------------------------------|------------------------|
Do you hate what you can`t see on your spinning ball?
Verse 2: 4x
E----------------------------------|-----------------------------------------|
B-6-6-----6-6-----6-6-----6-6------|-10-10-----10-10-------------------------|
G-7-7-----7-7-----7-7-----7-7------|-10-10-----10-10------9--9------9--9-----|
D-7-7-----7-7-----7-7-----7-7------|-10-10-----10-10-----10-10-----10-10-----|
A-----5-5-----5-5------5-5-----5-5-|-------8-8-------8-8-10-10-----10-10-----|
E----------------------------------|---------------------------8-8-------8-8-|
PM-| PM-| PM-| PM-| PM-| PM-| PM-| PM-|
Ignorant and wasted that`s what you are but you could be so much more
Listen to your TV, believe the words and you`re dumber than before
Try to see the real picture, train your mind to read between the lines
Take your level higher than is your way, just get up, start out today
Pre-chorus 1:
Am Bb
Time seems an endless road when we are young
Am Bb C
You don`t need a genius to know that it`s wrong
Chorus:
E---------------------------------|----------------------------------|
B---------------------------------|----------------------------------|
G-7-----------7-------7-------7---|-7-----------7------------7-------|
D-7-----------7-------7-------7---|-7-----------7------------7-------|
A-5---5-5-5-5-5---5-5-5---5-5-5---|-5---5-5-5-5-5----5-5-5-5-5---5-5-|
E---------------------------------|----------------------------------|
PM-----| PM-| PM-| PM-----| PM-----| PM-|

1., 3.
E---------------------------------|-----------------------------------|
B---------------------------------|-----------------------------------|
G---------------------------------|-----------------------------------|
D---------------------------------|-----------------------------------|
A-8-8-8-8-8-8-8-8-8-8-8-8-8-8-8-8-|-----------------------------------|
E---------------------------------|-8-8-8-8-8-8-8-8-8-8-8-8-8-8-8-8-8-|
PM-----------------------------------------------------------------|
2.
E-------------------------------------------------|
B-------------------------------------------------|
G-------------------------------------------------|
D-11-11-11-11-11-11-11-11-11-11-11-11-11-11-11-11-|
A-------------------------------------------------|
E-------------------------------------------------|
PM---------------------------------------------|
4.
E-----------------------------|
B-----------------------------|
G-----------------------------|
D-12-----11-----12-----14-----|
A-----------------------------|
E-----------------------------|
Hey now, hey now, open your life
Hey now, hey now, open your life
Rise now, rise now, feel the new drive
Hey now, hey now, open you life
Interlude:
E------------------------|---------------------------|
B-15~~--------17~~-------|-18~~--------20~~---18-18--|
G--------14----------14--|--------14-----------------|
D------------------------|---------------------------|
A------------------------|---------------------------|
E------------------------|---------------------------|
Verse 2:
Full satanic anger that`s what you breathe, it`s the strategy for all
Telling people stories and bed-time tales but the really important false
So you grow the wron seeds inside your head to the will of the modern priest
Supervised aggresion, instructed to sleep, there`s the devil that you breed
Pre-chorus 2:
All that we learn is just one point of view
Out there in the world it may not become true
Guitar solo (Sascha):
E-----------------------------------------------------|
B-----------------------------------------------------|
G-----------------------------------------------------|
D-----------------------------------------------------|
A-5~~--7-8-7~~--8-10-8~~--8-10-12-10-8-10-13-12-10-12-|
E-----------------------------------------------------|
PM--------------------|
E----------------------------------------------------------10-12-13-|
B-------------------------------------------------10-11-13----------|
G-------------------10-12-10--14--12--10--9-10-12-------------------|
D-12~~--14-15-14~~--------------------------------------------------|
A-------------------------------------------------------------------|
E-------------------------------------------------------------------|
E-17p13----------13-17p13-15p12----------12-15p12-
B-------15----15----------------13----13----------
G----------14----------------------12-------------
D-------------------------------------------------
A-------------------------------------------------
E-------------------------------------------------
E-13p10----------10-13p10-12p9-----------|
B-------11----11---------------10--------|
G----------10---------------------9-----|
D----------------------------------------|
A----------------------------------------|
E----------------------------------------|
E----------10----------------12----------------12----------------|
B-------10----10----------13----13----------12----12----14~~-----|
G----10----------10----12----------12----14----------14----------|
D-12----------------14----------------15-------------------------|
A----------------------------------------------------------------|
E----------------------------------------------------------------|
This is how Sascha plays the last bar live:
E-----5-10-5-------8-12-8---------8-13-8------------|
B---6--------6---8--------8----10--------10---------|
G-7------------9------------10--------------~~--|
D---------------------------------------------------|
A---------------------------------------------------|
E---------------------------------------------------|
aftificial harmonic




Ваше мнение



Капча