Author/Artist: Helloween
Title: March Of Time
Album: Keeper Of The Seven Keys Part II
Transcribed by: Andrй Baida da Silva from Brazil
Email: [email protected]
Hi guys, well, I hope that I'm helping you with this tab.
Any mistakes please e-mail me!!
See ya...
Andrй.

Intro.
G----------------------------------------------|-------------------------------
D----------------------------------------------|-------------------------------
A----------------5-5-5-7-0-0-0-0---------------|---------5-5-5-7-0-0-0-0-------
E----2--2--2--0------------------0-0---0-0-0-0-|-2-2-2-0-----------------0-0---

G----------|-------------------------------------------------------------------
D----------|-------------------------------------------------------------------
A----------|--7-7-7-7-7-7-7-7-7-7-3-3-3-3-3-3-3-3-5-5-7-7-7-7-7-7-7-7-7-3-3-3--
E-0-0-2/14-|-------------------------------------------------------------------

G-------------|---
D-------------|---
A-3-5-5-5-5-7-|---
E-----------0-|---

Vocals
G------------------------------------------------------------------------------
D--------------------------------------5-5h7-----------------------------------
A----5h7-7-7-7-5h7-7-7-7-----5h7-7-7-7-------5---5h7-7-7-7-5h7-7-7-7-----5h7-7-
E------------------------5h7-----------------------------------------5h7-------

G---------------------------------------------------------------------------|--
D------5-5h7----------------------------------------------------------------|--
A--7-7-------5--3-3-3-3-3-3-3-3-3-5h7-7-7-7-5h7-7-7-7-----5h7-7-7-7----3--5-|--
E-----------------------------------------------------5h7-------------------|--
G------------------------------------------------------------------------------
D--------------------------------------5-5h7-----------------------------------
A----5h7-7-7-7-5h7-7-7-7-----5h7-7-7-7-------5---5h7-7-7-7-5h7-7-7-7-----5h7-7-
E------------------------5h7-----------------------------------------5h7-------

G----------------------------------------------------------------------------|--
D------5-5h7---------------------------------------------------------5-5h7---|--
A--7-7-------5--3-3-3-3-3-3-3-3-3-5h7-7-7-7-5h7-7-7-7-----5h7-7-7-7--------5-|--
E-----------------------------------------------------5h7--------------------|--
Bridge.
G------------------------------------------------------------------------------
D------------------------------------------------------------------------------
A----4-4-2-4-5-4-2-4-2-0--------------------------4-4-2-4-5-4-2-4-4-5-5-5-5-5--
E------------------------4--2-2-2-1-2-4-2-4-2-0--------------------------------

G------------------|---
D------------------|---
A-7-7-7-7-7--------|---
E------------5-4-0-|---

Chorus.
G------------------------------------------------------------------------------
D------------------------------------------------------------------------------
A----------------------5-5-5-5-5-5-5-5--0-0-0-0-0-0-0-0------------------------
E----2-2-2-2-2-2-2-2------------------------------------0-0-0-0-0-0-0-0---2-2--

G-----------------------------------------------------------------|---
D-----------------------------------------------------------------|---
A--------------5-5-5-5-5-5-5-5-0-0-0-0-0-0-0-0--------------------|---
E-2-2-2-2-2-2----------------------------------0-0-0-0-0-0-0-0--2-|---

Repeat Vocals, Bridge and then:
G------------------------------------------------------------------------------
D------------------------------------------------------------------------------
A----------------------5-5-5-5-5-5-5-5--0-0-0-0-0-0-0-0------------------------
E----2-2-2-2-2-2-2-2------------------------------------0-0-0-0-0-0-0-0---2-2--

G--------------------------------------------------------------------------------|--
D--------------------------------------------------------------------------------|--
A--------------5-5-5-5-5-5-5-5-0-0-0-0-0-0-0-0--------------------4-4-4-4-4-4-4--|--
E-2-2-2-2-2-2----------------------------------0-0-0-0-0-0-0-0--2----------------|--
Solo
G------------------------------------------------------------------------------
D------------------------------------------------------------------------------
A-------------------------4-4-4-4-4-4-4-4-4-4----------------------4-4-4-4-4---
E----2-2-2-2-2-2-2-2-2-2-----------------------2-2-2-2-2-2-2-2-2-2-------------

G------------------------------------------------------------------------------
D--------------0h2-2-2-2-2-2-2-2-2-2-2-0-0-0-0-0h2-2-2-2-2-2--0h2-2-2-2-2-2-2--
A-4-4-4-4-4--------------------------------------------------------------------
E------------------------------------------------------------------------------

G-------------------------|---
D-2-2-0-0-0-0-0h2-2-2-2-2-|---
A-------------------------|---
E-------------------------|---

Solo II
G------------------------------------------------------------------------------
D----4---4---4---4----6---6---6---6----4---4----2---0--------------------------
A------4---4---4---4----4---4---4---4----4---4----2---0--4---4---4---4---------
E----------------------------------------------------------4---4---4---4-------

G---------------------4---4---4---4---------------------|---
D----4---4---4---4------2---2---2---2--0-4-6-7--6---6---|---
A------4---4---4---4------------------------------4---4-|---
E-------------------------------------------------------|---

Solo III
G------------------------------------------------------------------------------
D----------------------------------------------------------2-2-2-2-------------
A----------------4-4-4-4-4-------------4-4-4-4---------------------5-5-5-5-4---
E----2-2-2-2-2-2-----------2-2-2-2-2-2---------2-2-2-2-2-2---------------------

G-------------------------|---
D-------------------------|---
A-4-4-4-2-2-2-2-2-2-2-2-2-|---
E-------------------------|---
Vocals II
G------------------------------------------------------------------------------
D------------------------------------------------------------------------------
A----7-7-7-7-7-7-7-7-7-3-3-3-3-3-3-3-5-5-7-7-7-7-7-7-7-7-7-3-3-3-3-5-5-5-5-----
E------------------------------------------------------------------------------

G------------------------------------------------------------------------------
D------------------------------------------------------------------------------
A----9-9-9-9-9-9-9-9-5-5-5-5-5-5-5-7-7-9-9-9-9-9-9-9-9-9-5-5-5-5-7-7-7-7-------
E------------------------------------------------------------------------------

.....then repeat Chorus, and.....
G------6-6-----6-6-----6-6-----6-6--------|---
D-----------------------------------------|---
A----4-----4-4-----4-4-----4-4------------|---
E-----------------------------------0-2-2-|---

End.




Ваше мнение



Капча