Helloween
Keeper of the Seven Keys Pt.II
Transcribed by Francisco Martinez
Standard Tuning: E - A - D - G - B - E
Intro:
Am
||-------------------------0------------------------0-----------|
||----------------------1-----------1------------1-----------1--|
||-------------------2--------2----------------0-------0--------|
||----------------2--------------2----------2-------------2-----|
||--3--2--3p2--0------------------------------------------------|
||---------------------------------------3----------------------|
||--------------0-----------------------------------------------|
||-----------1-----------1--------------------------------------|
||--------2--------2--------------------------------------------|
||-----0--------------0-----------------------------------------|
||----------------------------------------0--1--2--3------------|
||--2-------------------------0--1--2--3------------------------|
Am C
||---------------0-------------------------0--------------------|
||------------1-----------1-------------1-----------1-----------|
||--------2---------2----------------0--------0-----------------|
||-----2---------------2----------2--------------2--------------|
||--0--------------------------3--------------------------------|
||--------------------------------------------------------------|
||---------------0----------------------------------------------|
||------------1-----------1-------------------------------------|
||--------2---------2-------------------------------------------|
||-----0---------------0----------------------------------------|
||----------------------------------------0--1--2--3--0---------|
||--2-------------------------0--1--2--3------------------------|
This is only the intro, someday I will have the rest of the song.
Transcribed by Francisco Martinez.
Any questions or requests please let me know by email.
email: [email protected]




Ваше мнение



Капча