Song: Keeper of the seven keys
from: Keeper of the seven keys pt II
Author/Artist:Weikath/Helloween
Title: Keeper of the seven keys
Album: Keeper of the seven keys pt II
Transcribed by: Jonas Jonsson (king of the nordic twilight)
Email: [email protected]
Most certainly this is NOT 100¬orrect, but you just have live with that.

acoustic intro
-------------0-----------------0------------------1------------------------
-----------1---1-----------------1--------------1----1---------------------
---------2-------2----------2------2----------2-------2--------------------
-------2-----------2------2----------2------------------2------------------
-3-2-0------------------0-----------------0--------------------------0-2-3-
----------------------3-----------------2------------------0-1-2-3-4-------
---------0---------------0-----------------0-------------------------
-------1---1-----------1---1-------------1---1-----------------------
-----2-------2-------2-------2---------2-------2---------------------
---2-----------2---2-----------2-----------------2-------------------
-0---------------3------------------0-------------------------0-2-3--
----------------------------------2-----------------0-1-2-3-4--------
Make the people...
-------------0-----------------0------------------1------------------------
-----------1---1-----------------1--------------1----1---------------------
---------2-------2----------2------2----------2-------2--------------------
-------2-----------2------2----------2------------------2------------------
-----0------------------0-----------------0--------------------------0-2-3-
----------------------3-----------------2------------------0-1-2-3-4-------
---------0---------------0-----------------0-----------
-------1---1-----------1---1-------------1---1---------
-----2-------2-------2-------2---------2-------2-------
---2-----------2---2-----------2-----------------------
-0---------------3------------------0------------------
----------------------------------2--------------------
riff1 Put on your armor
------------------------------------------------------------------------
------------------------------------------------------------------------
----2----------------2--------------------------------5--5--------------
-2--2------2--3---5--2--5----------5--3--2----3--3----5--5----3--3--2---
-2--0------2--3---5--0--5----------5--3--2----3--3----3--3----3--3--2---
-0---------0--1---3-----3----0--0--3--1--0----1--1------------1--5--0---
riff2
You hear them wispering.....
-----------------------------------------------------------------------
-----------------------------------------------------------------------
-----------------------------------------------------------------------
---------------------------------10-7-7-7-10-7-7-7-10-7-7-7-10-7-7-7-7-
-7-3-3-3-7-3-3-3-7-3-3-3-7-3-3-3---------------------------------------
-----------------------------------------------------------------------
--------------------------------------------------------------------------
--------------------------------------------------------------------------
-------------------------------------------------------1212121212-10-9----
-12-9-9-9-12-9-9-9-12-9-9-9-12-9-9-9--9-6-6-6-9-6-6-6------------------12-
--------------------------------------------------------------------------
--------------------------------------------------------------------------
riff3
You're whirling round...
----------------------------------------------------------------------------
---
----------------------------------------------------------------------------
---
-------------------------------------------------------------1212121212-10-9
---
-10-7-7-7-10-7-7-7-10-7-7-7-10-7-7-7-14-10-10-10-14-10-10-10----------------
-12
----------------------------------------------------------------------------
---
----------------------------------------------------------------------------
---
----------------------------------------------------
----------------------------------------------------
--------------------------------------2-------------
-10-7-7-7-10-7-7-7-12-9-9-9-12-9-9-9--2-------------
--------------------------------------0-------------
----------------------------------------------------
will ґo` the wisps....same as riff 2
-----------------------------------------------------------------------
-----------------------------------------------------------------------
-----------------------------------------------------------------------
-----------------------------------------------------------------------
-7-3-3-3-7-3-3-3-7-3-3-3-7-3-3-3-10-7-7-7-10-7-7-7-10-7-7-7-10-7-7-7---
-----------------------------------------------------------------------
---------------------------------------------------------------------------
---------------------------------------------------------------------------
------------------------------------------------------1212121212-10-9------
-12-9-9-9-12-9-9-9-12-9-9-9-12-9-9-9--9-6-6-6-9-6-6-6-----------------12--
--------------------------------------------------------------------------
--------------------------------------------------------------------------
you can't throw a curse....same as 3
----------------------------------------------------------------------------
---
----------------------------------------------------------------------------
---
-------------------------------------------------------------1212121212-10-9
---
-10-7-7-7-10-7-7-7-10-7-7-7-10-7-7-7-14-10-10-10-14-10-10-10----------------
-12
----------------------------------------------------------------------------
---
----------------------------------------------------------------------------
---
--------------------------------------------------------------
--------------------------------------------------------------
--------------------------------------2-----------------------
-10-7-7-7-10-7-7-7-12-9-9-9-12-9-9-9--2-----------------------
--------------------------------------0-----------------------
--------------------------------------------------------------
riff4
watch out for the seas...
-----------------|-----------------|----------------|-----------------------
-
-----------------|-----------------|----------------|-----------------------
-
-----------------|-----------------|----------------|-----------------------
--
-----------------|-----------------|--0-----0-------|--2-0---2-5-5-5--------
--
---3-1-0-3-3-3-3-|---2-0---2-2-2-2-|----3-2---5-5-5-|3-----3---3-3-3--------
--
-1---------1-1-1-|-0-----4---0-0-0-|3---------3-3-3-|-----------------------
--
or all of us people...
-----------------|----------------|-----------------|----------------------
-----------------|----------------|-----------------|----------------------
-----------------|----------------|-----------------|----------------------
-----------------|--2-0---2-5-5-5-|-----------------|---0-----0------------
-----1-0-3-3-3-3-|3-----3---3-3-3-|---2-0---2-2-2-2-|-----3-2---5-5-5------
-1---------1-1-1-|----------------|-0-----4---0-0-0-|-3---------3-3-3------
riff5
our only hope hope's your victory.. kill that satan...
(play twice)
-------------------------------------------------|--------------------------
---
-------------------------------------------------|--------------------------
---
---------------------0---------------------------|--------------------------
---
-3-3-3-3-2-2-0-0-0-0---3-2-2-0-0-----------------|------------------2-2-2-3-
3-3
---------------------------------3-3-0-0-0-0-----|0-0-0-2-2-2-3-3-3---------
---
---------------------------------------------3-3-|--------------------------
---
that won't... ending 2nd time
-------------------------------------------|------------
-------------------------------------------|------------
-0-0-0-------------------------------------|---2--------
-------2-2-2-0-0-0-------------------------|---2--------
-------------------3-3-3-2-2-2-0-0-0-------|---0--------
-------------------------------------3-3-3-|------------
pre-chorus
----------------------------------------------------
----------------------------------------------------
---------------0-----0-2----------------------------
---0-2-3-0-2-3---2-3------3-5-----------------------
-3------------------------3-5-----------------------
--------------------------1-3-----------------------
chorus
you're the keeper...
---------------------------------------------------------------------
---------------------------------------------------------------------
-5----5-------2---------2-------------------5----5-5-5---4-----------
-5----5---5---2---------2----5----3----5----5----5-5-5---4-----------
-3----3---5---0---------0----5----3----5----3----3-5-3---2-----------
---3------3--------0---------3----1----3-----------------------------
2x and the seer... ending after 2nd time
------------------|---------------------------|------------------
----5-------------|---------------------------|------------------
-5--4----5--5--2--|-----5---------2-----------|----------------5-
-5--2----5--5--2--|-3---5--2-0----2--5--------|-3--5-----------5-
-3-------3--3--0--|-3---3------3--0--5----0-2-|-3--5-----------3-
------------------|-1----------------3--3-----|-1--3-----3-3-3---
you can feel coldsweat... same as riff 2
-----------------------------------------------------------------------
-----------------------------------------------------------------------
-----------------------------------------------------------------------
---------------------------------10-7-7-7-10-7-7-7-10-7-7-7-10-7-7-7-7-
-7-3-3-3-7-3-3-3-7-3-3-3-7-3-3-3---------------------------------------
-----------------------------------------------------------------------
--------------------------------------------------------------------------
--------------------------------------------------------------------------
-------------------------------------------------------1212121212-10-9----
-12-9-9-9-12-9-9-9-12-9-9-9-12-9-9-9--9-6-6-6-9-6-6-6------------------12-
--------------------------------------------------------------------------
--------------------------------------------------------------------------
and the dwarves...as 3
----------------------------------------------------------------------------
--
----------------------------------------------------------------------------
--
------------------------------------------------------------1212121212-10-9-
--
10-7-7-7-10-7-7-7-10-7-7-7-10-7-7-7-14-10-10-10-14-10-10-10-----------------
12
----------------------------------------------------------------------------
--
----------------------------------------------------------------------------
--
----------------------------------------------------
----------------------------------------------------
--------------------------------------2-------------
-10-7-7-7-10-7-7-7-12-9-9-9-12-9-9-9--2-------------
--------------------------------------0-------------
----------------------------------------------------
Guided by spells...as 2
-----------------------------------------------------------------------
-----------------------------------------------------------------------
-----------------------------------------------------------------------
-----------------------------------------------------------------------
-7-3-3-3-7-3-3-3-7-3-3-3-7-3-3-3-10-7-7-7-10-7-7-7-10-7-7-7-10-7-7-7---
-----------------------------------------------------------------------
---------------------------------------------------------------------------
---------------------------------------------------------------------------
------------------------------------------------------1212121212-10-9------
-12-9-9-9-12-9-9-9-12-9-9-9-12-9-9-9--9-6-6-6-9-6-6-6-----------------12--
--------------------------------------------------------------------------
--------------------------------------------------------------------------
you're suffering pain...as 3
----------------------------------------------------------------------------
---
----------------------------------------------------------------------------
---
-------------------------------------------------------------1212121212-10-9
---
-10-7-7-7-10-7-7-7-10-7-7-7-10-7-7-7-14-10-10-10-14-10-10-10----------------
-12
----------------------------------------------------------------------------
---
----------------------------------------------------------------------------
---
--------------------------------------------------------------
--------------------------------------------------------------
--------------------------------------2-----------------------
-10-7-7-7-10-7-7-7-12-9-9-9-12-9-9-9--2-----------------------
--------------------------------------0-----------------------
--------------------------------------------------------------
riff4
stay well on you way.......
-----------------|-----------------|----------------|-----------------------
-
-----------------|-----------------|----------------|-----------------------
-
-----------------|-----------------|----------------|-----------------------
--
-----------------|-----------------|--0-----0-------|--2-0---2-5-5-5--------
--
---3-1-0-3-3-3-3-|---2-0---2-2-2-2-|----3-2---5-5-5-|3-----3---3-3-3--------
--
-1---------1-1-1-|-0-----4---0-0-0-|3---------3-3-3-|-----------------------
--
or all of us people...
-----------------|----------------|-----------------|----------------------
-----------------|----------------|-----------------|----------------------
-----------------|----------------|-----------------|----------------------
-----------------|--2-0---2-5-5-5-|-----------------|---0-----0------------
-----1-0-3-3-3-3-|3-----3---3-3-3-|---2-0---2-2-2-2-|-----3-2---5-5-5------
-1---------1-1-1-|----------------|-0-----4---0-0-0-|-3---------3-3-3------

riff5
the seven seas are far away placed in the valley
(play twice)
-------------------------------------------------|--------------------------
---
-------------------------------------------------|--------------------------
---
---------------------0---------------------------|--------------------------
---
-3-3-3-3-2-2-0-0-0-0---3-2-2-0-0-----------------|------------------2-2-2-3-
3-3
---------------------------------3-3-0-0-0-0-----|0-0-0-2-2-2-3-3-3---------
---
---------------------------------------------3-3-|--------------------------
---
of dust heat and sway... ending 2nd time
-------------------------------------------|------------
-------------------------------------------|------------
-0-0-0-------------------------------------|---2--------
-------2-2-2-0-0-0-------------------------|---2--------
-------------------3-3-3-2-2-2-0-0-0-------|---0--------
-------------------------------------3-3-3-|------------
pre-chorus
----------------------------------------------------
----------------------------------------------------
---------------0-----0-2----------------------------
---0-2-3-0-2-3---2-3------3-5-----------------------
-3------------------------3-5-----------------------
--------------------------1-3-----------------------
chorus
you're the keeper...
---------------------------------------------------------------------
---------------------------------------------------------------------
-5----5-------2---------2-------------------5----5-5-5---4-----------
-5----5---5---2---------2----5----3----5----5----5-5-5---4-----------
-3----3---5---0---------0----5----3----5----3----3-5-3---2-----------
---3------3--------0---------3----1----3-----------------------------
2x and the seer... ending after 2nd time
------------------|---------------------------|------------------
----5-------------|---------------------------|------------------
-5--4----5--5--2--|-----5---------2-----------|----------------5-
-5--2----5--5--2--|-3---5--2-0----2--5--------|-3--5-----------5-
-3-------3--3--0--|-3---3------3--0--5----0-2-|-3--5-----------3-
------------------|-1----------------3--3-----|-1--3-----3-3-3---
during solo
------------------------------------------------------------------
------------------------------------------------------------------
-----2-----2--------------------------2------------------------2--
-----2-----2-------------5------------2-----------5------------2--
-3-2-0-----0-------------5------------0-----------5------------0--
-----------------3-3-3-3-3----3-2-3-4-----3-3-3-3-3----3-2-3-4----
---------------------------------------------------------------
---------------------------------------------------------------
---------------------------------------------------------------
---------3-------------2---------------------------------------
---------3-------3-5-5-0---------------------------------------
-1-1-1-1-1-------1-3-3-----3---3-3-3---3-3-3-3-3-3-3-3-3-3-----
between solos play twice
----------------------------------------------------------------------------
---
--------------------------------------------------------------------8-------
-3-
-2-4-4-4-4-2-2-2--2-4-4-4-4-----------------------------------------7-------
-2-
-0-2-2-2-2-0-0-0--0-2-2-2-2--4-4-4--4-5-5-5-5--2-2-2-4----------------------
-0-
-----------------------------2-2-2--2-3-3-3-3--0-0-0-2---0------------------
---
-----------------------------------------------------------3-2-0------------
---
rythm for 2nd solo (repeat)
-------------------------------------------------------------
-------------------------------------------------------------
--------------------------2----------------------------------
-------------------0--2-4-----------------------0------------
-2-2-2-0-2----0-2--------------2-2-2-0-2----0-2----4-2-0-----
-------------------------------------------------------------
throw the second key...play 4x
---------------------------------------------------
---------------------------------------------------
----------2----------------------------------------
-2-4-4-4----2-4-4-2--------4-----------------------
--------------------4-3-2----3-4-------------------
---------------------------------------------------
riff 6 play 2
----------------------------------------------------
----------------------------------------------------
-2-4-4-4-4--2-4------1-2-1--------------------------
-0-2-2-2-2--0-2--2-4-------4-0----------------------
----------------------------------------------------
----------------------------------------------------
throw the third key
----------------------------------------------------
-----3-------5-5-------3--------------------------------
-5---2---4---4-4---5---2----------------------------------
-5---0---4---2-2---5---0-----------------------------------
-3-------2---------3-----------------------------------
----------------------------------------------------
play 2 same as 6
----------------------------------------------------
----------------------------------------------------
-2-4-4-4-4--2-4------1-2-1--------------------------
-0-2-2-2-2--0-2--2-4-------4-0----------------------
----------------------------------------------------
----------------------------------------------------
the fourth key belongs...
---------------------------------------------------
-----3-------5--------3--------------------------------
-5---2---4---4----5---2----------------------------------
-5---0---4---2----5---0-----------------------------------
-3-------2--------3-----------------------------------
---------------------------------------------------
riff 7
play twice
------------------------------------------------------------------
------------------------------------------------------------------
------------------------------------------------------------------
--------------------------------------------------4-2-3---2-------
--------------------------------------------------------4---3-4-0-
-0-2-2-2-2-2-0-2-0-2-2-2-2-2-2-2-0-2-2-2-2-2-2-2------------------
riff 8
---------------------------------------------------------------------
---------------------------------------------------------------------
---------------------------------------------------------------------
---------------------------------------------------------------------
----------------5-7---0-------------5-7-----------5-7---0------------
-0----0-0-0-0-0-----0---0-4-0-2-0-------0-0-0-0-0-----0---0-4-0-2-0--
same as 7 ,but once
------------------------------------------------------------------
------------------------------------------------------------------
------------------------------------------------------------------
--------------------------------------------------4-2-3---2-------
--------------------------------------------------------4---3-4-0-
-0-2-2-2-2-2-0-2-0-2-2-2-2-2-2-2-0-2-2-2-2-2-2-2------------------
riff9
--------------------------------------------------------------------
--------------------------------------------------------------------
--------------------------------------------------------------------
--------------------------------------------------------------------
--------------------------------------------------------------------
-0-0-0-0-0-0-0-0--0-0-0-0-0-0-0-0--0-0-0-0-0-0-0-0--0-0-0-0-0-0-0-0-
riff9
disease disease disease my friend...
----------------------------------------------------------------------
----------------------------------------------------------------------
----------------------------------------------------------------------
-------------------------0-0-0-0---------0-0-0-0----------------------
-----------------0-0-0-0---------3-3-3-3------------------------------
-0-0-0-0-3-3-3-3---------------------------------3-3-2-2-0-0-0-0------
disease disease disease my friend...
-----------------------------------------------------
--------------------------------------------------5--
--------------------------------------------------4--
-------------------------0-0-0-0---------0-0-1-1--2--
-----------------0-0-0-0---------2-2-2-2-------------
-0-0-0-0-3-3-3-3-------------------------------------
disease disease disease my friend...
------------------------------------------------------
-------------3-------3-----------------------------------
---------2---2---5---2-------------------------------------
-2---5---2---0---5---0---5-4-2----------------------------------
-2---5---0-------3-------5-4-2-------------------------------
-0---3-------------------3-2-0----------------------------
disease disease disease my friend...
----------------------------------------------------
-------------3---------------------------------------
---------2---2---4---7-8-9-------------------------------
-2---5---2---0---4---7-8-9---------------------------------
-2---5---0-------2---5-6-7--------------------------------
-0---3------------------------------------------------
acoustic during solo
Die!!!
-7--------7--7-------2--------3-2---------0-3---0----7--------
-8--------10-8-------3--------3-3-------1-----3---3--8---------
-7--------7--7-------2--------2-2--------------------9------
-9--------9--9-------0--------0-0--------------------9------
-7--------7--7---------------------------------------7---
-------------------------------------------------------
or this
-0---------------0---2--------------2---0-----2------0-----
-0---------------0---3--------------3---1-----3------0-----
-0---------------0---2--------------2---0-----2------0-----
-2---------------2---0--------------0---2-----0------2-----
-2---------------2----------------------3------------2-----
-0---------------0-----------------------------------0-----
after playing the aboove 2 times
2x or something
-7-----7-----7---7-----7------7----5-----5-----5---5-----5-----5-------
---8-----8-----8----8-----8-----8----7-----7----7----7-----7-----7---
-----9-----9----------9-----9----------7-----7---------7-----7-----
-------------------------------------------------------------------
-------------------------------------------------------------------
------------------------------------------------------------------

-3-----3-----3----5-----5-----5----7-----7-----7----7-----7-----7-----
---5-----5-----5----7-----7-----7----8-----8-----8----8-----8-----8---
-----5-----5----------7-----7----------9-----9----------9-----9---------
---------------------------------------------------------------------
----------------------------------------------------------------------
----------------------------------------------------------------------
solo
-14----12-------------------------------------------
---------------12-15-15-----------------------------
------------12------------12--15-15-----------------
-----------------------------------------14-14------
----------------------------------------------------
----------------------------------------------------

-----------------------------------12^---12^---10-12^-12^---14^--14^-12-10-
---------------------------------------------------------------------------
-------7-------------------------------------------------------------------
-9--9----9-7----7------0---------------------------------------------------
-------------10---10-7-----------------------------------------------------
-------------------------3-5-0---------------------------------------------

-19^---17-19-19-17----17-15--12------12/10-8--7/5-3---5^-3-------
----------------------------------------------------5-----------
-----------------------------------------------------------------
----------------------------------------------------------------
-----------------------------------------------------------------
----------------------------------------------------

--------7-5h7p5-----------------------------------5-3h5p3-2---------2-------
--
--5---5---------8-7-5---7-5---5-----------------------------5--3--5---5-3-5-
--
----4-----------------7-----7------------------2----------------------------
2-
---------------------------------------------0------------------------------
--
----------------------------------------------------------------------------
--
----------------------------------------------------------------------------
--

-15-12-----------------------------------
-------13-------------------------13-----
----------12-----------------------------
-------------14--------------------------
----------------15-----------15----------
-------------------15-12-15--------------

-17-14--------------------------------------14-12h14p12--19--19--20--19--
-------15---------------------------15-----------------------------------
----------14-------------------------------------------------------------
-------------16----------------------------------------------------------
----------------17-12-------12-17----------------------------------------
----------------------14-14----------------------------------------------

--------------------15-12^-------------------15---19---17/15--19--15^-12-
-15-15^---12-13-15^--------15-13-12-10---/17-----------------------------
-------------------------------------------------------------------------
-------------------------------------------------------------------------
-------------------------------------------------------------------------
-------------------------------------------------------------------------
on a mound at the shore... 2x
----------------------------------|------------------------------------
----------------------------------|------------------------------------
----------------------------------|---7-6-4----------------------------
----------------------------------|-4-----------4--4-7-6h7p6-----6-----
----------------------------------|---------5-7--------------9-7-------
-0-0-0-0-0-0-0-0-0-0-0-0-0-0-0-0--|------------------------------------
ending 2nd time
------------------------------------|----------------
------------------------------------|----------------
---9-8-6----------------------------|-------------------
-6------------6---6-9-7h9p7-6-------|--------------------------
----------7-9-----------------9-7-9-|-9-7-0------------------
------------------------------------|----------------
man who do you...
----------------------------------------------------
----------------------------------------------------
----------------------------------------------------
-------------------------5---------------------------
---0-2--0-2----0-2--0-2--3-----------------------------------
-0-----------0----------------------------------------
to be continued...after christmas:)
----------------------------------------------------
----------------------------------------------------
----------------------------------------------------
----------------------------------------------------
----------------------------------------------------
----------------------------------------------------




Ваше мнение



Капча