I'm Alive
 
Intro: Guitar 2
E-------|--||---------------------------|-------------------
B-------|--||---------------------------|-------------------
G---4:--|--||*--------------------------|-------------------
D---4:--|--||*--------------------------|-------------------
A-------|--||---------------------------|-------------------
E-------|--||---2--5--4--0--2--5--4--0--|-------------------
  Guitar 1 is rhythm (Plays power chords)
E---------------------------|--------------------------|----
B---------------------------|--------------------------|----
G---------------------------|--------------------------|----
D---------------------------|--------------------------|----
A---------------------------|--------------------------|----
E---2--5--4--0--2--5--4--0--|--2--5--4--0--2--5--4--0--|----
E----------------------------||-----------------------------
B----------------------------||-----------------------------
G---------------------------*||-----------------------------
D---------------------------*||-----------------------------
A------------4--2------------||-----------------------------
E---2--5--4--------5--4--0---||-----------------------------
  Guitar 3 (harmony for gtr2 on repeat)
E---------------------------|--------------------------|----
B---------------------------|--------------------------|----
G---------------------------|--------------------------|----
D---------------------------|--------------------------|----
A------4--2--------4--2-----|-----4--2--------4--2-----|----
E---5--------4--5--------5--|--5--------4--5--------5--|----
E---------------------------------|-------------------------
B---------------------------------|-------------------------
G---------------------------------|-------------------------
D---------------------------------|-------------------------
A------------4--2--------4--2-----|-------------------------
E---------5--------4--5--------5--|-------------------------
E---------------------------||------------------------------
B---------------------------||------------------------------
G---------------------------||------------------------------
D---------------------------||------------------------------
A------4--2--4--5--4--2-----||------------------------------
E---5--------------------4--||------------------------------
 
  Rhythm Fig 1 (verse)
E----------------------------------------------------|------
B----------------------------------------------------|------
G----------------------------------------------------|------
D----------------------------------------------------|------
A----p4------------------------p4--------------------|------
E---0-2--2--2--2--2--2--2-----0-2--2--2--2--2--2--2--|------
 
E-----------------------------------------------------------
B-----------------------------------------------------------
G-----------------------------------------------------------
D-----------------------------9-----------------------------
A-------p4--------------------7-----------------------------
E------0-2--2--2--2--2--2--2--0-----------------------------
E------------------------|----------------------------------
B------------------------|----------------------------------
G------------------------|----------------------------------
D------------------------|----------------------------------
A------------------------|----------------------------------
E------------------------|----------------------------------
E----------------------------------------------------|------
B----------------------------------------------------|------
G----------------------------------------------------|------
D----------------------------------------------------|------
A----p4------------------------p4--------------------|------
E---0-2--2--2--2--2--2--2-----0-2--2--2--2--2--2--2--|------
 
E-----------------------------------------------|-----------
B-----------------------------------------------|-----------
G-----------------------------------------------|-----------
D--------------------------9--------------------|-----------
A----p4--------------------7--------------------|-----------
E---0-2--2--2--2--2--2--2--0--------------------|-----------
  Rhythm Fig2 (w/fill 1 and 2)
E-----------------------------------------------------------
B-----------------------------------------------------------
G-----------------------------------------------------------
D---6-----------------6-------------------------------------
A---4-------4---------4-------------------------------------
E-----------2-----------------------------------------------
 
  End Rhy Fig 2
E-----------------------------------------------------------
B-----------------------------------------------------------
G-----------------------------------------------------------
D---7-----------------------------9-------------------------
A---5-----------------------------7-------------------------
E-----------------------------------------------------------
  Fill 1
E------------------|-----------------------------|----------
B------------------|-----------------------------|----------
G------------------|--------6--4-----------------|----------
D------------------|--------------7--6--3--4--6--|----------
A------------------|-----4-----------------------|----------
E------------------|-----------------------------|----------
E------------------------|--------------------------|-------
B------------------------|--------------------------|-------
G------------------------|-----6--4-----------------|-------
D---7--6--4--3--4--6-----|-----------7--6--3--4--6--|-------
A---------------------4--|--4-----------------------|-------
E------------------------|--------------------------|-------
E-----------------------------------------------------------
B-----------------------------------------------------------
G-----------------------------------------------------------
D------7-----h7p64-----------9--------h9p76---------------
A--------------------5-------------------------7------------
E-----------------------------------------------------------
 
  Chorus: Rhythm Fig 3
E---|-----------|-----------|-----------|-------------------
B---|-----------|-----------|-----------|-------------------
G---|-----------|-----------|-----------|-------------------
D---|-----------|-----------|-----------|-------------------
A---|--4-----4--|--4-----4--|--4-----4--|-------------------
E---|--2--0--2--|--2--0--2--|--2--0--2--|-------------------

E---------------------|-----|-----------|--------------|----
B---------------------|-----|-----------|--------------|----
G---------------------|-----|-----------|--------------|----
D---7-----6-----------|-----|-----------|--------------|----
A---5-----4--4-----4--|-----|--4-----4--|-----4-----4--|----
E------------2--0--2--|-----|--2--0--2--|-----2--0--2--|----
 
  Ohhhhhhhhhhhhhhhhhhhhhhhhhhh
E---------------------------------------------------|-------
B---------------------------------------------------|-------
G---------------------------------------------------|-------
D---6-----------------------6-----------------------|-------
A---4--4--4--4--4--4--4--4--4--4--4--4--4--4--4--4--|-------
E---------------------------------------------------|-------
E---------------|-------------------------------------------
B---------------|-------------------------------------------
G---------------|-------------------------------------------
D---6--4--------|-------------------------------------------
A---4--2--7--6--|-------------------------------------------
E---------5--4--|-------------------------------------------
 
  Repeat Rhythm Fig 1, 2, and chorus
E-----------------------------------------------------------
B-----------------------------------------------------------
G-----------------------------------------------------------
D-----------------------------------------------------------
A-----------------------------------------------------------
E-----------------------------------------------------------
 
  Solo / higher notes refer to lead guitar
E-----------------------------------------------------------
B-----------------------------------------------------------
G------11--------------11--------------13-----------14------
D-----------------------------------------------------------
A------4----------------------------------------------------
E------2---2--2--2-----2---2--2--2-----2---2--2--2--2-------
E------------|----------------------------------------------
B------------|----------------------------------------------
G------------|----------------------------------------------
D------------|----------------------------------------------
A------------|----------------------------------------------
E---2--2--2--|----------------------------------------------
 
E-----------------------------------------------------------
B---12^--------------12-------------------------------------
G------------------------------------14--------------13-----
D-----------------------------------------------------------
A---4-------------------------------------------------------
E---2----2--2--2-----2---2--2--2-----2---2--2--2------------
E------------|----------------------------------------------
B------------|----------------------------------------------
G------------|----------------------------------------------
D------------|----------------------------------------------
A------------|----------------------------------------------
E---2--2--2--|----------------------------------------------
 
E-----------------------------------------------------------
B-----------------------------------------------------------
G---10--------------10--------------11--------------13------
D---6-------------------------------------------------------
A---4---4--4--4-----4---4--4--4-----4---4--4--4-----4-------
E-----------------------------------------------------------
E------------|--------|-------------------------------------
B------------|--------|-------------------------------------
G------------|--------|-------------------------------------
D------------|--------|-------------------------------------
A---4--4--4--|--------|-------------------------------------
E------------|--------|-------------------------------------
E----------------------------------------------------|------
B----------------------------------------------------|------
G---13-----------------------------------------------|------
D---6------------------------------------------------|------
A---4---4--4--4--4--4--4--4--4--4--4--4--4--4--4--4--|------
E----------------------------------------------------|------
  D
E-----------------------------------|-----------------------
B-----------------------------------|-----------------------
G-----------------------------------|-----------------------
D---7p4-----7p4-----7p4-----7p4-----|-----------------------
A--------5-------5-------5-------5--|-----------------------
E-----------------------------------|-----------------------
  E
E-----------------------------------|-----------------------
B-----------------------------------|-----------------------
G-----------------------------------|-----------------------
D---9p5-----9p5-----9p5-----9p5-----|-----------------------
A--------7-------7-------7-------7--|-----------------------
E-----------------------------------|-----------------------
  F#
E---------------------------------------|-------------------
B---------------------------------------|-------------------
G---------------------------------------|-------------------
D---11p7-----11p7-----11p7-----11p7-----|-------------------
A---------9--------9--------9--------9--|-------------------
E---------------------------------------|-------------------
  E
E---------------------------------|-------------------------
B---------------------------------|-------------------------
G---------------------------------|-------------------------
D---9-----------------------------|-------------------------
A---------------------------------|-------------------------
E---------------------------------|-------------------------
  G
E-----------------------------------|-----------------------
B-----------------------------------|-----------------------
G---7p4-----7p4-----7p4-----7p4-----|-----------------------
D--------5-------5-------5-------5--|-----------------------
A-----------------------------------|-----------------------
E-----------------------------------|-----------------------
  A
E-----------------------------------|-----------------------
B-----------------------------------|-----------------------
G---9p5-----9p5-----9p5-----9p5-----|-----------------------
D--------7-------7-------7-------7--|-----------------------
A-----------------------------------|-----------------------
E-----------------------------------|-----------------------
  B
E---------------------------------------|-------------------
B---------------------------------------|-------------------
G---11p7-----11p7-----11p7-----11p7-----|-------------------
D---------9--------9--------9--------9--|-------------------
A---------------------------------------|-------------------
E---------------------------------------|-------------------
 
  E
E-----------------------------------------------------------
B-----------------------------------------------------------
G---16------------------------------------------------------
D-----------------------------------------------------------
A-----------------------------------------------------------
E-----------------------------------------------------------
E---||-----------------------------------14--14--14--14-----
B---||---12--12--12--12--12--12--14--15---------------------
G---||*----------------------------------19--19--19--19-----
D---||*--17--17--17--17--17--17--19--21---------------------
A---||------------------------------------------------------
E---||------------------------------------------------------
E---14-----------------|------------------------------------
B----------15--14--12--|------------------------------------
G---19-----------------|------------------------------------
D----------21--19--17--|------------------------------------
A----------------------|------------------------------------
E----------------------|------------------------------------
E-----------------------------------------------------------
B---11--11--11--11--11--12--14--11--------------------------
G--------------------------------------12--------11---------
D---16--16--16--16--16--17--19--16--------------------------
A--------------------------------------19--------17---------
E-----------------------------------------------------------
E--------------------------|--------------------------------
B--------------------------|--------------------------------
G------9---------7---------|--------------------------------
D--------------------------|--------------------------------
A------16------------------|--------------------------------
E----------------18--------|--------------------------------
 
E--------------------------------------14--14--14--14-------
B------12--12--12--12--12--12--14--15-----------------------
G--------------------------------------19--19--19--19-------
D------17--17--17--17--17--17--19--21-----------------------
A-----------------------------------------------------------
E-----------------------------------------------------------
E---14--------------|---------------------------------------
B-------15--14--12--|---------------------------------------
G---19--------------|---------------------------------------
D-------21--19--17--|---------------------------------------
A-------------------|---------------------------------------
E-------------------|---------------------------------------
E-----------------------------------------------------------
B---11--11--11--11--11--14--12--11-----11--------14---------
G-----------------------------------------------------------
D---16--16--16--16--16--19--17--16-----16--------19---------
A-----------------------------------------------------------
E-----------------------------------------------------------
 
E-----------||----------------------------------------------
B------12---||----------------------------------------------
G------19--*||----------------------------------------------
D----------*||----------------------------------------------
A-----------||----------------------------------------------
E-----------||----------------------------------------------
  C#
E---||------------------------------------------------------
B---||------------------------------------------------------
G---||*-----------------------------------------------------
D---||*--6-----------6--7--6--------------------------------
A---||------------9-----------------------------------------
E---||------------------------------------------------------
  E D C#
E---------------|-------------------------------------------
B---------------|-------------------------------------------
G---------------|-------------------------------------------
D---9--7--6-----|-------------------------------------------
A---------------|-------------------------------------------
E---------------|-------------------------------------------
  F# E D E
E-----------------------------------------------------------
B-----------------------------------------------------------
G-----------------------------------------------------------
D---------------------------------------9-----7-----9-------
A---4--------2--4--5--4-------------------------------------
E-----------------------------------------------------------
  On repeat
E----||-----------------------------------------------------
B----||-----------------------------------------------------
G---*||-----------------------------------------------------
D---*||-----------------------------------------------------
A----||-----4--5--6-----------------------------------------
E----||--0--2--3--4-----------------------------------------

  Harmony lead 2 2 guitars
E---||------------------------------------------------------
B---||---15--15--15--15--13--13--13--13--12--12--12--12-----
G---||*--16--16--16--16--14--14--14--14--12--12--12--12-----
D---||*-----------------------------------------------------
A---||------------------------------------------------------
E---||------------------------------------------------------
  7x
E--------------------||-------------------------------------
B---13--13--13--13---||-------------------------------------
G---14--14--14--14--*||-------------------------------------
D-------------------*||-------------------------------------
A--------------------||-------------------------------------
E--------------------||-------------------------------------
E---||------------------------------------||----------------
B---||---15--13--12--13--15--13--12--13---||----------------
G---||*--16--14--12--14--16--14--12--14--*||----------------
D---||*----------------------------------*||----------------
A---||------------------------------------||----------------
E---||------------------------------------||----------------
 
E-------------------------------|---------------------------
B---12-------------------12-----|---------------------------
G-------------------------------|---------------------------
D-------------14--14------------|---------------------------
A-------------------------------|---------------------------
E-------------------------------|---------------------------
E--------------------------|--------------------------------
B---15^--------------------|--------------------------------
G--------------------------|--------------------------------
D--------------------------|--------------------------------
A--------------------------|--------------------------------
E--------------------------|--------------------------------
 
A E
E----------------------------------------------|------------
B---10-----------10--------12-----------12-----|------------
G----------9----------------------9------------|------------
D----------------------------------------------|------------
A----------------------------------------------|------------
E----------------------------------------------|------------
 
  F D
E-------------------------------------------------|---------
B------14-----12----------------------------------|---------
G--------------------14-----11--------------------|---------
D-------------------------------------------------|---------
A-------------------------------------------------|---------
E-------------------------------------------------|---------
  A E
E---------------------------------------------|-------------
B-------------12-----14-----12----------------|-------------
G------14--------------------------13---------|-------------
D-----------------------------------------14--|-------------
A---------------------------------------------|-------------
E---------------------------------------------|-------------
  F D
E-------------------------------------------------|---------
B-------------------------------------------------|---------
G------14-----13-----14-----11--------------------|---------
D-------------------------------------------------|---------
A-------------------------------------------------|---------
E-------------------------------------------------|---------

  A E F
E------|------------------------------------------|---------
B------|--10-----------10--------12-----------12--|/1-------
G------|---------9----------------------9---------|---------
D------|------------------------------------------|---------
A------|------------------------------------------|---------
E------|------------------------------------------|---------
  F D
E-----------12---/17--------14------------------------------
B---/14-----------------------------------------------------
G-----------------------------------------------------------
D-----------------------------------------------------------
A-----------------------------------------------------------
E-----------------------------------------------------------
 
  A E
E---|-----19^--19^p17-----19/---22^-----------|-------------
B---|-----------------------------------------|-------------
G---|-----------------------------------------|-------------
D---|-----------------------------------------|-------------
A---|-----------------------------------------|-------------
E---|-----------------------------------------|-------------
  D
E-------------------------------|---------------------------
B---22-----21--22-----19--------|---------------------------
G-------------------------------|---------------------------
D-------------------------------|---------------------------
A-------------------------------|---------------------------
E-------------------------------|---------------------------
  E
E----------------------------|------------------------------
B---22-----21-----22-----19--|------------------------------
G----------------------------|------------------------------
D----------------------------|------------------------------
A----------------------------|------------------------------
E----------------------------|------------------------------

E------------------16--16--16--19--19--19--22--22--22--|----
B------17--17--17--------------------------------------|----
G------------------------------------------------------|----
D------------------------------------------------------|----
A------------------------------------------------------|----
E------------------------------------------------------|----
With tremolo
E---22^-----------------------------------------------------
B-----------------------------------------------------------
G-----------------------------------------------------------
D-----------------------------------------------------------
A-----------------------------------------------------------
E-----------------------------------------------------------
 
Repeat Pre chorus and Chorus
E-----------------------------------------------------------
B-----------------------------------------------------------
G-----------------------------------------------------------
D-----------------------------------------------------------
A-----------------------------------------------------------
E-----------------------------------------------------------




Ваше мнение



Капча