t. See http://www.olga.net/faq/ for more information. #
Date: Thu, 09 Sep 1999 14:45:06 -0300
From: Rafael Stefani
Subject: h/helloween/i_want_out.tab
Helloween's "I Want Out" off Live in UK Album
By: Rafael Coelho ([email protected])
Brazil
Tuning : E A D G B E (Standard)
Introduction runs like this:
|----5-------5-------5-------5-------3-----5-----1---------------|
|3-------3-------3-------3-------3-------------------------------|
|----------------------------------------------------------------|
|----------------------------------------------------------------|
|----------------------------------------------------------------|
|----------------------------------------------------------------|
|----5-------5-------5-------5-------3---5---3-------6---5---3---|
|3-------3-------3-------3-------3---------------3---------------|
|----------------------------------------------------------------|
|----------------------------------------------------------------|
|----------------------------------------------------------------|
|----------------------------------------------------------------|
Repeat introduction 2 times then:
|------------5-----8-----10------|
|3-----6-------------------------|
|--------------------------------|
|--------------------------------|
|--------------------------------|
|--------------------------------|
The verses goes like this:
|--------------------------------|
|--------------------------------|
|--------------------------------|
|5---3---2---5---7-----3-----5---|
|------------3---5-----1-----3---|
|--------------------------------|
Pre-chorus (palm muted)
|----------------------------------------------------------------|
|----------------------------------------------------------------|
|----------------------------------------------------------------|
|5-5-5-5-5-5-----------------------------------------------------|
|3-3-3-3-3-3---5-5-5-5-5-5---8-8-8-8-8-8---7-7-7-7-7-7-7-7-7-----|
|--------------3-3-3-3-3-3---6-6-6-6-6-6---5-5-5-5-5-5-5-5-5-----|
Chorus (I want out.. etc. etc.)
|------------------------------|
|------------------------------|
|------------------------------|
|--5/7-------3-----5-----------|
|--3/5-------1-----3-----------| x 4
|------------------------------|
After the first chorus repeat introduction:
|----5-------5-------5-------5-------3-----5-----1---------------|
|3-------3-------3-------3-------3-------------------------------|
|----------------------------------------------------------------|
|----------------------------------------------------------------|
|----------------------------------------------------------------|
|----------------------------------------------------------------|
|----5-------5-------5-------5-------3---5---3-------6---5---3---|
|3-------3-------3-------3-------3---------------3---------------|
|----------------------------------------------------------------|
|----------------------------------------------------------------|
|----------------------------------------------------------------|
|----------------------------------------------------------------|
|--------------------------------|
|--------------------------------|
|--------------------------------|
|5---3---2---5---7-----3-----5---|
|------------3---5-----1-----3---|
|--------------------------------|
Pre-chorus (palm muted)
|----------------------------------------------------------------|
|----------------------------------------------------------------|
|----------------------------------------------------------------|
|5-5-5-5-5-5-----------------------------------------------------|
|3-3-3-3-3-3---5-5-5-5-5-5---8-8-8-8-8-8---7-7-7-7-7-7-7-7-7-----|
|--------------3-3-3-3-3-3---6-6-6-6-6-6---5-5-5-5-5-5-5-5-5-----|
Chorus (I want out.. etc. etc.)
|------------------------------|
|------------------------------|
|------------------------------|
|--5/7-------3-----5-----------|
|--3/5-------1-----3-----------| x 4
|------------------------------|
|------------5-----8-----10------|
|3-----6-------------------------|
|--------------------------------|
|--------------------------------|
|--------------------------------|
|--------------------------------|

This part goes after second chorus:
|----------------------------------------------------------------|
|----------------------------------------------------------------|
|----------------------------------------------------------------|
|----------------------------------------------------------------|
|7-7-7-7-7---7-7-7-7-7---3-3-2-2---5-5-5-5-5---5-5-5-5-5---3-3-3-|
|5-5-5-5-5---5-5-5-5-5---1-1-0-0---3-3-3-3-3---3-3-3-3-3---1-1-1-|
|----------------------------------------------------------------|
|----------------------------------------------------------------|
|----------------------------------------------------------------|
|----------------------------------------------------------------|
|3-3---2-2-2---3-3-3-3-3---3-3-3-3---2-2-2---3-3-3---5-----------|
|1-1---0-0-0---1-1-1-1-1---1-1-1-1---0-0-0---1-1-1---3-----------|
* SOLO GOES HERE - I'LL UPDATE IT WHEN I HAVE IT TRANCRYPTED *
After solo:
|----------------------------8---5-------------------------------|
|3---3---5---6---8---6---1-----------8---7---8---7---5-----------|
|----------------------------------------------------------------|
|----------------------------------------------------------------|
|----------------------------------------------------------------|
|----------------------------------------------------------------|
|--------------------------------8---5---------------------------|
|3---3---5---6---8---6---8b10------------8---7---8---7---5-------|
|----------------------------------------------------------------|
|----------------------------------------------------------------|
|----------------------------------------------------------------|
|----------------------------------------------------------------|
Let Ring this note (bass solo here)
|----------------------------------------------------------------|
|3---------------------------------------------------------------|
|----------------------------------------------------------------|
|----------------------------------------------------------------|
|----------------------------------------------------------------|
|----------------------------------------------------------------|
Repeat Chorus:
(Living alone..)
|------------------------------|
|------------------------------|
|------------------------------|
|--5/7-------3-----5-----------|
|--3/5-------1-----3-----------| x 4
|------------------------------|
Final Riff:
|----10------10------10------10------8---10----------------------|
|8-------8-------8-------8-------8-----------8-------------------|
|----------------------------------------------------------------|
|----------------------------------------------------------------|
|----------------------------------------------------------------|
|----------------------------------------------------------------|
|----10------10------10------10------8---10--8-------11--10--8---|
|8-------8-------8-------8-------8---------------8---------------|
|----------------------------------------------------------------|
|----------------------------------------------------------------|
|----------------------------------------------------------------|
|----------------------------------------------------------------|
TABBED BY: Rafael Stefani Coelho (Brasilia, Brazil)
Contact me by the e-mail: [email protected]
My favorite bands are: Megadeth, Slayer, Motцrhead, Pantera, Machine
Head, Kreator,
Iron Maiden, Black Sabbath, Obituary, Brujeria, Old Metallica, Sepultura
(until Chaos AD)
etc.




Ваше мнение



Капча