-----------------------------------------------------------------------------
I wnat out - helloween
-----------------------------------------------------------------------------
Tabbed by:Neil Fergusson
Email: [email protected]

Tuning:EADGBe (standard)

There's a little trill bit just before the solo starts.
It rapidly hammers on/pulls off between the 12th and 13th frets on the B string.

e|---------------15^^^^-15^^^^-------15^^^^15~~~~15^^^^15-13h15h13-12trill13-
B|15^^^^-15^^^^13------------------------------------------------------------
G|---------------------------------------------------------------------------
D|---------------------------------------------------------------------------
A|---------------------------------------------------------------------------
E|---------------------------------------------------------------------------

e|---------------------------------------------------------------------------
B|-----------------------------------------------------------12h13p12h13p12--
G|---------------------------------------------------------------------------
D|-/15-14-12----15-14-12--15-14/17-15-14----17-15-14--17-15------------------
A|---------------------------------------------------------------------------
E|---------------------------------------------------------------------------

e|---------------------------------------------------------------------------
B|---------------------------------------------------------------------------
G|-12h14p12---10h12p10---9h10p9---7h9p7--------------------------------------
D|-----------------------------------------/7~~~~~---------------------------
A|---------------------------------------------------------------------------
E|---------------------------------------------------------------------------

e|--------------------------20------20----------------19-19-19--20--22--20---
B|----------------------20^^^^^-20^^^^-20^^^^--------------------------------
G|--19^^^^^19^^^^17----------------------------------------------------------
D|---------------------------------------------------------------------------
A|---------------------------------------------------------------------------
E|---------------------------------------------------------------------------
________ ________ ________
e|-22^^^^^^22^^^^^^^-----24~~~24~~~~~---24-22-20--22-20-19--20-19------------
B|----------------------------------------------------------------22---------
G|---------------------------------------------------------------------------
D|---------------------------------------------------------------------------
A|---------------------------------------------------------------------------
E|---------------------------------------------------------------------------
________ ________ ________ ________ ________ ________ ________
e|-19------------------------------------------------------------------------
B|----22-20--22-20-18--20-18-17--18-17-----17--------------------------------
G|-------------------------------------19-----19-17--19-17-16--17-16-14------
D|---------------------------------------------------------------------------
A|---------------------------------------------------------------------------
E|---------------------------------------------------------------------------
________ ________ _______ _______
e|---------------------------------------------------------------------------
B|---------------------------------------------------------------------------
G|-16-14-12--14-12-10--12-10-9--10-9-----9-----------------------------------
D|-----------------------------------12----12p10-----------------------------
A|-----------------------------------------------12~~~~~~~~~~----------------
E|---------------------------------------------------------------------------
I hope I've helped you learn this relatively easy solo.
| / slide up
| slide down
| h hammer-on
| p pull-off
| ~ vibrato
| + harmonic
| x Mute note
===============================================================================




Ваше мнение



Капча