Author/Artist: Helloween
Title: I Can
Album: Better Than Raw
Transcribed by: Mike Wicks
Email: [email protected]
Im sure this is right, the only thing is the verse!:)
--------------------------------------------------------------------------|---
--------------------------------------------------------------------------|---
--------------------------------------------------------------------------|---
--------------------------------------------------------------------------|---
-7777777--3333333--12-12-12-12-12-12-12--3333--5555--777777777777---------|---
-5555555--1111111--10-10-10-10-10-10-10--1111--3333--555555555555---------|---
^Guitar 1 Muted w/Heavy Distortion
------------------------------------------------------------------------|-----
------------------------------------------------------------------------|-----
------------------------------------------------------------------------|-----
-7------3------12------3------5------7----------------------------------|-----
-7------3------12------3------5------7----------------------------------|-----
-5------1------10------1------3------5----------------------------------|-----
^Guitar 2 Strum Chords
-------------------------------------------------------------------------|----
-------------------------------------------------------------------------|----
-9-9p6h9-9p6h9-9p6h9-9p6h9-9p6-------------------------------------------|----
-------------------------------------------------------------------------|----
-------------------------------------------------------------------------|----
-------------------------------------------------------------------------|----
^After awhile a 3rd guitar starts this riff.
------------------------------------------------------------------------------
------------------------------------------------------------------------------
------------------------------------------------------------------------------
------------------------------------------------------------------------------
------------------------------------------------------------------------------
--7-5-6-4-5-3-3-2-------------------------------------------------------------
^Final Riff in intro
Verse
------------------------------------------------------------------------------
------------------------------------------------------------------------------
-5---5---5--3--5--------------------------------------------------------------
-5---5---5--3--5--------------------------------------------------------------
-3---3---3--1--3--------------------------------------------------------------
------------------------------------------------------------------------------

Pre Chorus
------------------------------------------------------------------------------
------------------------------------------------------------------------------
-5----3----7------------------------------------------------------------------
-5----3----7------------------------------------------------------------------
-3----1----5------------------------------------------------------------------
------------------------------------------------------------------------------

------------------------------------------------------------------------------
For Chorus go back to Guitar 1's first riff.
------------------------------------------------------------------------------

Break (I I I)
-----------|-----------|---------|--------------------------------------------
-----------|-----------|---------|--------------------------------------------
-----------|-----------|---------|--------------------------------------------
-7--5--3---|--7--5--3--|-7--5--3-|-7--5---------------------------------------
-7--5--3---|--7--5--3--|-7--5--3-|-7--5---------------------------------------
-5--3--1---|--5--3--1--|-5--3--1-|-5--3---------------------------------------

Fade riff at the end.
--8--6------------------------------------------------------------------------
--------8--6----6-------------------------------------------------------------
--------------8---------------------------------------------------------------
------------------------------------------------------------------------------
------------------------------------------------------------------------------
------------------------------------------------------------------------------
Any comments are welcome.
Mike Wicks
----------------------------------------
More Tab's Can You Find At:
http://w1.346.telia.com/~u34603481




Ваше мнение



Капча