Guardians by Helloween
Transcribed by Vinicius Neves ([email protected])
ONLY BASS TABS - http://basstabs.cjb.net
Tuning: E A D G
Intro
|-------------------------|
|-------------------------|
|--0---0-0---0-0-0---0-0--|
|-------------------------|
|------5---7-7-----4-5--|------5---7-7-----4-5--|
|--5-7---7-----5-7------|--5-7---7-----5-7------|
|-----------------------|-----------------------|
|-----------------------|-----------------------|
|------5---7-7-----4-5--|------5---7-7-----4-5--|
|--5-7---7-----5-7------|--5-7---7-----5-7------|
|-----------------------|-----------------------|
|-----------------------|-----------------------|
Verse
|-----------------------|----------4-5-7--|
|-----------------------|----2-3-5--------|
|--0-0-0-0-0-0-0-0-0-0--|--3--------------|
|-----------------------|-----------------|
|-----------------------|----------4-5-7--|
|-----------------------|----2-3-5--------|
|--0-0-0-0-0-0-0-0-0-0--|--3--------------|
|-----------------------|-----------------|
|-----------------------|----------4-5-7--|
|-----------------------|----2-3-5--------|
|--0-0-0-0-0-0-0-0-0-0--|--3--------------|
|-----------------------|-----------------|
|-----------------------|----------4-5-7--|
|-----------------------|----2-3-5--------|
|--0-0-0-0-0-0-0-0-0-0--|--3--------------|
|-----------------------|-----------------|
Bridge
|-------------------------------------------------------------------|
|-------------------------------------------------------------------|
|---------------3-3--2-2--0-0---------------------------------------|
|--1-1-1-1-1-1-----------------1-1--3-3-3-3-3-3--0-0-0-0-0-0--5--3--|
|--------------------------------------------------------------------------5---5-4--|
|----------------------------------------------------------------------------5------|
|---------------3-3--2-2--0-0---------------------------------7-7-7-7-7-7-----------|
|--1-1-1-1-1-1-----------------1-1--3-3-3-3-3-3--0-0-0-0-0-0------------------------|
Intro Riff
|------5---7-7-----4-5--|------5---7-7-----4-5--|
|--5-7---7-----5-7------|--5-7---7-----5-7------|
|-----------------------|-----------------------|
|-----------------------|-----------------------|
|------5---7-7-----4-5--|------5---7-7-----4-5--|
|--5-7---7-----5-7------|--5-7---7-----5-7------|
|-----------------------|-----------------------|
|-----------------------|-----------------------|
Verse
|-----------------------|----------4-5-7--|
|-----------------------|----2-3-5--------|
|--0-0-0-0-0-0-0-0-0-0--|--3--------------|
|-----------------------|-----------------|
|-----------------------|----------4-5-7--|
|-----------------------|----2-3-5--------|
|--0-0-0-0-0-0-0-0-0-0--|--3--------------|
|-----------------------|-----------------|
|-----------------------|----------4-5-7--|
|-----------------------|----2-3-5--------|
|--0-0-0-0-0-0-0-0-0-0--|--3--------------|
|-----------------------|-----------------|
|-----------------------|----------4-5-7--|
|-----------------------|----2-3-5--------|
|--0-0-0-0-0-0-0-0-0-0--|--3--------------|
|-----------------------|-----------------|
Bridge
|-------------------------------------------------------------------|
|-------------------------------------------------------------------|
|---------------3-3--2-2--0-0---------------------------------------|
|--1-1-1-1-1-1-----------------1-1--3-3-3-3-3-3--0-0-0-0-0-0--5--3--|
|--------------------------------------------------------------------------5---5-4--|
|----------------------------------------------------------------------------5------|
|---------------3-3--2-2--0-0---------------------------------7-7-7-7-7-7-----------|
|--1-1-1-1-1-1-----------------1-1--3-3-3-3-3-3--0-0-0-0-0-0------------------------|
Chorus
|------------------------------7-5-4------------------------------------------|
|--------------2-3-5-5-5-5-5-5-------7-7-7-7-7-7--5---------------------------|
|--3-3-3-3-3-3--------------------------------------7-7-7-7-7-7--3-3-3-3-3-3--|
|-----------------------------------------------------------------------------|
|-----------------------------------------|
|-----------------------------------------|
|--0-0-0-0-0-0----------------------------|
|---------------1-1-1-1-1-1--3-3-3-3-3-3--|
|----------------------------------------------------------------------|
|--------------2-3-5-5-5-5-5-5--3-3-3-3-3-3--5-5-5-5-5-5---------------|
|--3-3-3-3-3-3--------------------------------------------3-3-3-3-3-3--|
|----------------------------------------------------------------------|
Intro Riff
|------5---7-7-----4-5--|------5---7-7-----4-5--|
|--5-7---7-----5-7------|--5-7---7-----5-7------|
|-----------------------|-----------------------|
|-----------------------|-----------------------|
|------5---7-7-----4-5--|------5---7-7-----4-5--|
|--5-7---7-----5-7------|--5-7---7-----5-7------|
|-----------------------|-----------------------|
|-----------------------|-----------------------|
Solo
|----------------------------------------------12-11-9----9----------|
|----------5------------7----------------9-------------12---12-9-10--|
|--7-7-7-7---7--9-9-9-9---9--10-10-10-10---10------------------------|
|--------------------------------------------------------------------|
|----------------------------------------------12-11-9----9----------|
|----------5------------7----------------9-------------12---12-9-10--|
|--7-7-7-7---7--9-9-9-9---9--10-10-10-10---10------------------------|
|--------------------------------------------------------------------|
|----------------------------------------------12-11-9----9----------|
|----------5------------7----------------9-------------12---12-9-10--|
|--7-7-7-7---7--9-9-9-9---9--10-10-10-10---10------------------------|
|--------------------------------------------------------------------|
|----------------------------------------------12-11-9----9----------|
|----------5------------7----------------9-------------12---12-9-10--|
|--7-7-7-7---7--9-9-9-9---9--10-10-10-10---10------------------------|
|--------------------------------------------------------------------|
|-----------------------------------------------------------|
|--------------------------------------7----7--10-9---------|
|--7--7-7-7--7-7-7--7-7-7--7-9-10-9-10---10---------10-9-7--|
|-----------------------------------------------------------|
|------------------------------------------------------7--|
|--------------------------------------7----7--10-9-10----|
|--7--7-7-7--7-7-7--7-7-7--7-9-10-9-10---10---------------|
|---------------------------------------------------------|
|-----------------------------------------------------------|
|--------------------------------------7----7--10-9---------|
|--7--7-7-7--7-7-7--7-7-7--7-9-10-9-10---10---------10-9-7--|
|-----------------------------------------------------------|
|------------------------------------------------------7--|
|--------------------------------------7----7--10-9-10----|
|--7--7-7-7--7-7-7--7-7-7--7-9-10-9-10---10---------------|
|---------------------------------------------------------|
|--------------------------|
|--------------------------|
|--7--7-7-7--7-7-7--7-7-7--|
|--------------------------|
|----------------------------------------------------------|
|----------------------------------------------------------|
|---------------5-5-5-5-5-5--3-3-3-3-3-3--3-2-0---2-0------|
|--3-3-3-3-3-3----------------------------------3-----3-2--|
|-------------------------------------|
|-------------------------------------|
|-------------------------------------|
|--0-0-0-0-0-0-0-0-0-0-0-0-0-0-0-0-0--|
|----------------------------------------------------------|
|----------------------------------------------------------|
|---------------5-5-5-5-5-5--3-3-3-3-3-3--3-2-0---2-0------|
|--3-3-3-3-3-3----------------------------------3-----3-2--|
|-------------------------------------|
|-------------------------------------|
|-------------------------------------|
|--0-0-0-0-0-0-0-0-0-0-0-0-0-0-0-0-0--|
|----------------------------------------------------------|
|----------------------------------------------------------|
|---------------3-3-3-3-3-3--1-1-1-1-1-1--1-0-----0--------|
|--1-1-1-1-1-1--------------------------------3-1---3-1-0--|
|----------------------------------------------------------|
|----------------------------------------------------------|
|---------------3-3-3-3-3-3--1-1-1-1-1-1--1-0-----0--------|
|--1-1-1-1-1-1--------------------------------3-1---3-1-0--|
|----------------------------------------------------------|
|----------------------------------------------------------|
|---------------3-3-3-3-3-3--1-1-1-1-1-1--1-0-----0--------|
|--1-1-1-1-1-1--------------------------------3-1---3-1-0--|
|--------------------------------5---5-4--|
|----------------------------------5------|
|--7-7-7-7-7-7-7-7-7-7-7-7-7-7-7----------|
|-----------------------------------------|
Chorus
|------------------------------7-5-4------------------------------------------|
|--------------2-3-5-5-5-5-5-5-------7-7-7-7-7-7--5---------------------------|
|--3-3-3-3-3-3--------------------------------------7-7-7-7-7-7--3-3-3-3-3-3--|
|-----------------------------------------------------------------------------|
|-----------------------------------------|
|-----------------------------------------|
|--0-0-0-0-0-0----------------------------|
|---------------1-1-1-1-1-1--3-3-3-3-3-3--|
|------------------------------9-7-6-------------------------------------------|
|--------------4-5-7-7-7-7-7-7--------9-9-9-9-9-9--7---------------------------|
|--5-5-5-5-5-5---------------------------------------9-9-9-9-9-9--5-5-5-5-5-5--|
|------------------------------------------------------------------------------|
|-----------------------------------------|
|-----------------------------------------|
|--2-2-2-2-2-2----------------------------|
|---------------3-3-3-3-3-3--5-5-5-5-5-5--|
|------------------------------------------------------------------------|
|--------------4-5-7-7-7-7-7-7--5-5-5-5-5-5--7-7-7-7-7-7-7---------------|
|--5-5-5-5-5-5----------------------------------------------5-5-5-5-5-5--|
|------------------------------------------------------------------------|
|----------7-------7-------7-------7---------6-------6-------6-------6--|
|--9-9-9-9---9-9-9---9-9-9---9-9-9---7-7-7-7---7-7-7---7-7-7---7-7-7----|
|-----------------------------------------------------------------------|
|-----------------------------------------------------------------------|
|----------7-------7-------7-------7---------6-------6-------6-------6--|
|--9-9-9-9---9-9-9---9-9-9---9-9-9---7-7-7-7---7-7-7---7-7-7---7-7-7----|
|-----------------------------------------------------------------------|
|-----------------------------------------------------------------------|
|----------7-------7-------7-------7---------6-------6-------6-------6--|
|--9-9-9-9---9-9-9---9-9-9---9-9-9---7-7-7-7---7-7-7---7-7-7---7-7-7----|
|-----------------------------------------------------------------------|
|-----------------------------------------------------------------------|
|----------7-------7-------7-------7---------6-------6-------6-------6--|
|--9-9-9-9---9-9-9---9-9-9---9-9-9---7-7-7-7---7-7-7---7-7-7---7-7-7----|
|-----------------------------------------------------------------------|
|-----------------------------------------------------------------------|
|--------------------------------------|
|--------------------------------------|
|--2-------2-------2-------------------|
|----0-0-0---0-0-0---0-0-0--0---0---0--|




Ваше мнение



Капча