From Out Of Nowhere
by Faith No More
From the album The Real Thing
(C) 1989 Big Thrilling Music/Vomit God Music (ASCAP)
transcribed by Steve Gorenburg
re-tabbed by Joe White

e e e e e e e e e e e e e e e e e 3x e e e e e e e e e e e
G--------||------------------|------------------||-----------------|------------
D---4:---||*-----------------|-----------------*||-----------------|------------
A---4:-1-||*-3-3-3-3-3-3-3-3-|-3-3-3-3-3-3-3-3-*||-3-3-3-3-3-3-3-3/|-15-15-15---
E--------||------------------|------------------||-----------------|------------

e e e q e e e e e e e s s e e e e e e e e e e e e e e e s s
G---------------|-----r---r---r-----|-----r-------------|-----r---r---r-----|---
D---------------|-----e---e---e-----|-----e-5/10-8------|-----e---e---e-----|---
A---15-15-15-15|-6---s---s---s-----|-6---s--------10-8-|-6---s---s---s-----|---
E---------------|---8-t-8-t-8-t-6h8-|---8-t-------------|---8-t-8-t-8-t-6h8-|---

e e e e Q e e e e e e e e s s e e e e e e e e e e e q q s s
G----------------r-|-----r---r---r-----|-----r-------------|-8----r----r--------
D----------------e-|-----e---e---e-----|-----e-5/10-8------|---10-e-10e-8h10---
A---6-----98~~~-s-|-6---s---s---s-----|-6---s--------10-8-|------s----s--------
E-----8-x--------t-|---8-t-8-t-8-t-6h8-|---8-t-------------|------t----t--------

e e e s s q q e e e e e e e s s e e e e e e e e e e e e e e
G---|-8------10/1110-r-|-----r---r---r-----|-----r-------------|-----r---r-----
D---|---10-x----------e-|-----e---e---e-----|-----e-5/10-8------|-----e---e-----
A---|-----------------s-|-6---s---s---s-----|-6---s--------10-8-|-6---s---s-----
E---|-----------------t-|---8-t-8-t-8-t-6h8-|---8-t-------------|---8-t-8-t-8---
1st Verse

e s s e e e e Q e e e e e e e e s s e e e e e e e e e e e
G---r-----|--------------r-|-----r---r---r-----|-----r-------------|-8----r-----
D---e-----|--------------e-|-----e---e---e-----|-----e-5/10-8------|---10-e-----
A---s-----|-6-----98~~~-s-|-6---s---s---s-----|-6---s--------10-8-|------s-----
E---t-6h8-|---8-x--------t-|---8-t-8-t-8-t-6h8-|---8-t-------------|------t-----

q q s s e e e q q s s e e e s s q q e e e e e e e s s e
G------r------|-8----r----r-----|------------------||--------------------|------
D---10e-8h10-|---10-e-10e-----|------------------||*-------------------|------
A------s------|------s----s-----|-6-----8/98~~~-8||*-------------------|------
E------t------|------t----t-6h8-|---8-x------------||--3-3-3-3-3-3-3-3-3/|-6----
Pre-Chorus

e e e e e e s s 3x Q e h Q e q q e e e e e e e s s e e e e e e
G--------------------||-------|----------|-----r---r---r-----|-----r------------
D-------------------*||-------|----------|-----e---e---e-----|-----e-5/10-8-----
A-------------------*||-------|----------|-6---s---s---s-----|-6---s------------
E---6-6-6-6-6-6-6-6--||-4-4-4-|-4-4-4/16|---8-t-8-t-8-t-6h8-|---8-t------------

e e e e e e e e e s s e e e e Q e e e e e e e e s s e e e e
G--------|-----r---r---r-----|--------------r-|-----r---r---r-----|-----r-------
D--------|-----e---e---e-----|--------------e-|-----e---e---e-----|-----e-5/----
A---10-8-|-6---s---s---s-----|-6-----98~~~-s-|-6---s---s---s-----|-6---s-------
E--------|---8-t-8-t-8-t-6h8-|---8-x--------t-|---8-t-8-t-8-t-6h8-|---8-t-------

e e e e e e e q q s s e e e s s q q e e e e e e e s s e
G-------------|-8----r----r------|-8------10/1110-r-|-----r---r---r-----|------
D---10-8------|---10-e-10e-8h10-|---10-x----------e-|-----e---e---e-----|------
A--------10-8-|------s----s------|-----------------s-|-6---s---s---s-----|-6----
E-------------|------t----t------|-----------------t-|---8-t-8-t-8-t-6h8-|------
2nd Verse

e e e e e e e e e e e e e e s s e e e e Q e e e e e e e e s s
G-----r-------------|-----r---r---r-----|--------------r-|-----r---r---r--------
D-----e-5/10-8------|-----e---e---e-----|--------------e-|-----e---e---e--------
A-----s--------10-8-|-6---s---s---s-----|-6-----98~~~-s-|-6---s---s---s--------
E---8-t-------------|---8-t-8-t-8-t-6h8-|---8-x--------t-|---8-t-8-t-8-t-6h8----

e e e e e e e e e e e q q s s e e e q q s s e e e s s q
G---|-----r-------------|-8----r----r------|-8----r----r-----|------------------
D---|-----e-5/10-8------|---10-e-10e-8h10-|---10-e-10e-----|------------------
A---|-6---s--------10-8-|------s----s------|------s----s-----|-6-----8/98------
E---|---8-t-------------|------t----t------|------t----t-6h8-|---8-x------------

q e e e e e e e s s e e e e e e e s s 3x Q e h Q e q q
G---------||--------------------|--------------------||-||--------|-------------
D---------||*-------------------|-------------------*||-||*-------|-------------
A---~~~-8||*-------------------|-------------------*||-||*-------|-------------
E---------||--3-3-3-3-3-3-3-3-3/|-6-6-6-6-6-6-6-6-6--||-||--4-4-4-|-4-4-4/16---
Pre-Chorus

2x e e e e e e e e 3x e e e e e e q Q q e e s s Q q e e
G-----||-||-------------------||----------------------|-------------|-----------
D----*||-||*-----------------*||----------------------|-------------|-----------
A----*||-||*-3-3-3-3-3-3-3-3-*||-15-15-15-15-15-15-15|-------------|-----------
E-----||-||-------------------||----------------------|-4-4-4-4-4-4-|-6-6-6-6---
Chorus

s s Q q e e s s Q q e e e e e e e e e e e 3x e e e e e
G-------|-------------|---------------||-------------------||-------------------
D-------|-------------|---------------||*-----------------*||-------------------
A-------|-------------|---------------||*-3-3-3-3-3-3-3-3-*||-15-15-15-15-15----
E---6-6-|-8-8-8-8-8-8-|-10-10-10-10-0-||-------------------||-------------------

e q Q q e e s s Q q e e s s Q q e e s s h h
G---------|-------------|-------------|-------------|----r-||-------------------
D---------|-------------|-------------|-------------|----e-||*------------------
A---15-15|-------------|-------------|-------------|----s-||*------------------
E---------|-4-4-4-4-4-4-|-6-6-6-6-6-6-|-8-8-8-8-8-8-|-10-t-||-------------------

e e e e e e e s s e e e e e e e e e e e e e e e s s e e e e Q
G-------r---r---r-----|-----r-------------|-----r---r---r-----|-----------------
D-------e---e---e-----|-----e-5/10-8------|-----e---e---e-----|-----------------
A---6---s---s---s-----|-6---s--------10-8-|-6---s---s---s-----|-6-----98~~~----
E-----8-t-8-t-8-t-6h8-|---8-t-------------|---8-t-8-t-8-t-6h8-|---8-x-----------
2nd time: 3rd Verse

e e e e e e e e s s e e e e e e e e e e e q q s s e e e s s q
G---r-|-----r---r---r-----|-----r-------------|-8----r----r-----|---------------
D---e-|-----e---e---e-----|-----e-5/10-8------|---10-e-10e-----|---------------
A---s-|-6---s---s---s-----|-6---s--------10-8-|------s----s-----|-6-----8/98---
E---t-|---8-t-8-t-8-t-6h8-|---8-t-------------|------t----t-6h8-|---8-x---------

q 2x e e e e e e e s s e e e e e e e s s 3x Q e h Q e q
G----------||-||--------------------|--------------------||-||--------|---------
D---------*||-||*-------------------|-------------------*||-||*-------|---------
A---~~~-8*||-||*-------------------|-------------------*||-||*-------|---------
E----------||-||--3-3-3-3-3-3-3-3-3/|-6-6-6-6-6-6-6-6-6--||-||--4-4-4-|-4-4-4---
Pre-Chorus

q 2x e e e e e e e e 3x e e e e e e q Q q e e s s Q q
G--------||-||-------------------||----------------------|-------------|--------
D-------*||-||*-----------------*||----------------------|-------------|--------
A-------*||-||*-3-3-3-3-3-3-3-3-*||-15-15-15-15-15-15-15|-------------|--------
E---/16-||-||-------------------||----------------------|-4-4-4-4-4-4-|-6-6----
Chorus

e e s s Q q e e s s Q q e e e e e e e e e e e 3x e e e e
G-----------|-------------|---------------||-------------------||---------------
D-----------|-------------|---------------||*-----------------*||---------------
A-----------|-------------|---------------||*-3-3-3-3-3-3-3-3-*||-15-15-15-15---
E---6-6-6-6-|-8-8-8-8-8-8-|-10-10-10-10-0-||-------------------||---------------

e e q Q q e e s s Q q e e s s Q q e e s s Q q e e e e
G------------|-------------|-------------|-------------|---------------||-------
D------------|-------------|-------------|-------------|---------------||*------
A---15-15-15|-------------|-------------|-------------|---------------||*-3----
E------------|-4-4-4-4-4-4-|-6-6-6-6-6-6-|-8-8-8-8-8-8-|-10-10-10-10-0-||-------

e e e e e e e 3x e e e e e e q Q q e e s s Q q e e s s Q q
G------------------||----------------------|-------------|-------------|--------
D-----------------*||----------------------|-------------|-------------|--------
A---3-3-3-3-3-3-3-*||-15-15-15-15-15-15-15|-------------|-------------|--------
E------------------||----------------------|-4-4-4-4-4-4-|-6-6-6-6-6-6-|-8-8----

e e s s h h e e e e e e e e 4x q e e e e e e q e e e e e e q
G-----------|----r-||-------------------||-5-------------|-5-------------|-5----
D-----------|----e-||*-----------------*||-5-------------|-5-------------|-5----
A-----------|----s-||*-3-3-3-3-3-3-3-3-*||-3-3-3-3-3-3-3-|-3-3-3-3-3-3-3-|-3----
E---8-8-8-8-|-10-t-||-------------------||---------------|---------------|------
Outro

e s s q e s s w w
G---------5-------|-5-|-r-||
D---------5-------|-5-|-e-||
A---3-3-3-3-3-3-3-|-3-|-s-||
E-----------------|---|-t-||




Ваше мнение



Капча