Author/Artist: Helloween
Title: Forever And One
Album: Time Of The Oath
Transcribed by: Anders Ehrenborg
Email: [email protected]

Tune Down Your E sting One Half Step

------------------------------------------------------------------------------
-------10-12b13-12h13p12p10-12-----8---8b10r8-6-8-5--------8b10r8---8---------
-9-9-9-------------------------9--x--9---------------7-5----------7---7/9---9-
---------------------------------x-----------------------7--------------------
------------------------------------------------------------------------------
------------------------------------------------------------------------------
Solo

----10------------------------------------------------------------------------
-------13--13b15r13-------------------------10-10-12-13-12--10h12p10----------
-12----------------12b14r12------------------------------------------12-10----
----------------------------1210---------------------------------------------
----------------------------------12-10-12------------------------------------
------------------------------------------------------------------------------


-15b17r15-13-12h13p12----------------15---------------15----------------------
----------------------15--13-15-15b17--17r15p13-15b17----17r15p13-15b17-------
------------------------------------------------------------------------------
------------------------------------------------------------------------------
------------------------------------------------------------------------------
------------------------------------------------------------------------------


------------------------------------------------------------------------------
------------------------------------------------------------------------------
------------------------------------------------------------------------------
------------------------------------------------------------------------------
------------------------------------------------------------------------------
------------------------------------------------------------------------------
This Is To Fast For Me To Hear, But I Would Be Pleased If Anyone Could Send

------------------------------------------------------------------------------
------------------------------------------------------------------------------
------------------------------------------------------------------------------
------------------------------------------------------------------------------
------------------------------------------------------------------------------
------------------------------------------------------------------------------
Me This Part.




Ваше мнение



Капча