From: [email protected] (Pekka Huuskonen il220-2 KuTOL)
Subject: TAB: Helloween "Dr. Stein"
Heres a bit of a song by Helloween called Dr. Stein.
Any comments and corrections wanted.....
Helloween: Dr. Stein
tabbed by Pekka Huuskonen [email protected]
e:-|----------------------------------------------------------|
B:-|----------------------------------------------------------|
G:-|.--7\4--4--4--4---4--4--4--4------------------------------|
D:-|.--5\2--2--2--2---2--2--2--2---7\4--4--4--4---4--4--4--4--|
A:-|-------------------------------5\2--2--2--2---2--2--2--2--|
E:-|----------------------------------------------------------|
pm................... pm...................

e:------------------------------------------------|
B:------------------------------------------------|
G:-------------------------4---4--4---4--4--4--4--|
D:-------------------------2---2--2---2--2--2--2--|
A:-3--2--3--2--3--2--3--5-------------------------|
E:------------------------------------------------|
pm................

e:--------------------------------------------------------|
B:--------------------------------------------------------|
G:-7\4--4--4--4---4--4--4--4------------------------------|
D:-5\2--2--2--2---2--2--2--2---7\4--4--4--4---4--4--4--4--|
A:-----------------------------5\2--2--2--2---2--2--2--2--|
E:--------------------------------------------------------|
pm................... pm...................

e:---------------------------------------------------|
B:---------------------------------------------------|
G:---------------------------------------4----------.|
D:---------------------------------------2----------.|
A:-3--2--3--2--3--2---------2--2--2--2---------------|
E:-------------------3--2---0--0--0--0---------------|
pm......

Bridge
e:--------------------------|-------------------------|
B:--------------------------|-------------------------|
G:--------------------------|-------------4-----------|
D:-4-----------5------------|-7-----------2-----------|
A:-2-----------3------------|-5-----------------------|
E:--------------------------|-------------------------|

e:---------------------------|--------------------------|
B:---------------------------|--------------------------|
G:-5-------------------------|--------------------------|
D:-3-----------5-------------|-7------------------4--5--|
A:-------------3-------------|-5------------5--7--------|
E:---------------------------|--------------------------|

e:---------------------------|---------------------------|
B:---------------------------|---------------------------|
G:---------------------------|--------------4------------|
D:-4------------5------------|-7------------2------------|
A:-2------------3------------|-5-------------------------|
E:---------------------------|---------------------------|

e:---------------------------|-----------------------|
B:---------------------------|-----------------------|
G:---------------------------|-----------------------|
D:-5-----------7-------------|-----------------------|
A:-3-----------5-------------|-5---------------------|
E:---------------------------|-3---------------------|

Chorus
e:-------------------------------------|
B:-------------------------------------|
G:-------------------------------------|
D:-5---5--5----7---7--7-------------7--|
A:-3---3--3----5---5--5---5--4---2--5--|
E:------------------------3--2---0-----|
pm... pm...

e:-------------------------------------------|
B:-------------------------------------------|
G:-----------------------7/9--7-----5--------|
D:-5---5--5---7---7--7---5/7--5--------7--5--|
A:-3---3--3---5---5--5-----------------------|
E:-------------------------------------------|
pm... pm...

e:-----------------------------------|------------------------|
B:-----------------------------------|------------------------|
G:-----------------------------------|------------------------|
D:-5---5--5---7---7--7------------7--|-5----------7-----------|
A:-3---3--3---5---5--5---5--4--2--5--|-3----------5-----------|
E:-----------------------3--2--0-----|------------------------|
pm... pm...

e:-----------------------------------------------------|
B:-_____3_____------------------_____3_____------------|
G:-----------------------------------------------------|
D:-9----7----9----9--9--9--9----9----7----9---7--------|
A:-7----5----7----7--7--7--7----7----5----7---5--------|
E:-----------------------------------------------------|
pm......

e:--------------------------------------------------------|
B:-_____3_____--------------------------------------------|
G:--------------------------------------------------------|
D:-9----7----9----9--9--9--9---7-----5--------------7~~~--|
A:-7----5----7----7--7--7--7------------7--5--------------|
E:--------------------------------------------7-----------|
pm......

e:----------------------------------------------------|
B:-_____3_____----------------_____3_____-------------|
G:----------------------------------------------------|
D:-9----7----9---9--9--9--9---9----7----9---7---------|
A:-7----5----7---7--7--7--7---7----9----7---9---------|
E:----------------------------------------------------|

e:----------------------------------------------------|
B:-_____3_____----------------------------------------|
G:----------------------------------------------------|
D:-9----7----9---9--9--9--9---7-----5------------7~~~-|
A:-7----5----7---7--7--7--7---5--------7--5-----------|
E:-------------------------------------------7--------|
[email protected]




Ваше мнение



Капча