HELLOWEEN
DONT STOP BEING CRAZY

Intro and verse:
e------------------------------------------------------------------
B-3p1-----1p0---------------------3p1-----1p0----------------------
G-----------------4p2-----2-----------------------4p2-----2--------
D-----2-------2-------2-------2-------2-------2-------2-------2----
A-------0-------0-------0-------0-------0-------0-------0-------3--
E------------------------------------------------------------------

e--------------------------------------------------
B-1p0------------------------0-----------1p0-----0-
G---------0------2-------0h2-----2-----------2-0-0-
D-----2------0-------0---------------2-----------2-
A-------3------2-------2---------0-----0---------2-
E------------------------------------------------0-

Pre-chorus:
F#m, G
F#m, G, A

Chorus:
e----------------------------------------------twice
B----------------------------------------------
G----------------------------------------------
D-9----9-9-9-7----7-7-7-2----2-2-2-------------
A-9----9-9-9-7----7-7-7-2----2-2-2--------/5-4-
E-7----7-7-7-5----5-5-5-0----0-0-0-2~----------
PM---| PM---| PM---|

e------------------------------------twice
B----------------------------------3-
G----------------------------------0-
D-9----9-9-9-7----7-7-7-2----2-2-2-0-
A-9----9-9-9-7----7-7-7-2----2-2-2-x-
E-7----7-7-7-5----5-5-5-0----0-0-0-3-
PM---| PM---| PM---|

Bridge:
G, D/F#, E (all power chords)

Last pre-chorus:
G#m, A
G#m, A, B

The last chorus is lifted one whole step...
For the outro play the verse riff...

Hope you enjoyed this awsome song! Happy happy Helloween!!!
For comments and other stuff mail on [email protected] ( I would appreciate it...)




Ваше мнение



Капча