#----------------------------------PLEASE NOTE--------------------------------#
#This file is the author's own work and represents their interpretation of the#
#song. You may only use this file for private study, scholarship, or research.#
#-----------------------------------------------------------------------------#
Date: Sun, 22 Mar 1998 11:55:08 +0200
From: Deniz BALKAN
Subject: h/helloween/a_tale_that_wasnt_right.tab
A TALE THAT WASN'T RIGHT
HELLOWEN
( from the album Keeper of the seven keys part 1 )
Transcribed by: DENIZ BALKAN
e-mail: [email protected]
legend: ^ : bend
r : release
h: hammer on
p: pull off

1ST VERSE
Am Em Am Fm
E-0---0---0---0--|-0---0---0---0--|-0---0---0---0--|-1---1---1---1--|
B-1---1---1---1--|-0---0---0---0--|-1---1---1---1--|-1---1---1---1--|
G----------------|----------------|----------------|----------------|
D---2---2---2---2|---2---2---2---2|---2---2---2---2|---3---3---3---3|
A----------------|----------------|----------------|----------------|
E----------------|----------------|----------------|----------------|

Dm Am Em
E-1---1---1---1--|-0---0---0---0--|-0---0---0---0---|
B-3---3---3---3--|-1---1---1---1--|-0---0---0---0---|
G---2---2---2---2|----------------|-----------------|
D----------------|---2---2---2---2|---2---2---2----2|
A----------------|----------------|-----------------|
E----------------|----------------|-----------------|

Am 1st time ,with lyrics Gm
E-0---0---|------0------|----------------3--------------||
B-1---1---|------1------|----------------3--------------||
G---------|-------------|----------------4--------------||
D---2---2-|-------------|----------------5--------------||
A---------|-------------|----------------5--------------||
E---------|-------------|----------------3--------------||


solo 1: ( played clean , with verse 1 )
E||-------------------------|----------------------------------|
B||12^13--10-12^13r12--10^12|-15^17--15^17--15--13--12--13--10-|
G||-------------------------|----------------------------------|
D||-------------------------|----------------------------------|
A||-------------------------|----------------------------------|
E||-------------------------|----------------------------------|


E---------------------------------|-15^17--15^17--15--13--12-13-10|
B-10-12-13-12-10-15-13-12h13p12-10|-------------------------------|
G---------------------------------|-------------------------------|
D---------------------------------|-------------------------------|
A---------------------------------|-------------------------------|
E---------------------------------|-------------------------------|


E--------------------------|-----------------------------------||
B---10-12-13-12-12h13p12-10|-10--12^13r12--13^15r13--10^12--10-||
G-9------------------------|-----------------------------------||
D--------------------------|-----------------------------------||
A--------------------------|-----------------------------------||
E--------------------------|-----------------------------------||

(verse 1)
Here I stand all alone
Have my mind turned to stone
Have my heart filled up with ice
To avoid its breakin' twice
(verse 1)
Thanx to you,my dear old friend
But you can't help, this is the end
Of a tale that wasn't right
I won't have no sleep tonight

chorus:

F5 G5 A5 (F5) G5
In my heart , in my soul
F5 C5 Bb5 G5
I really hate to pay this toll

F5 G5 A5 (F5) G5
Should be strong , young and bold

F5 Em A5
But the only thing I feel is pain

(the below bit is sung with the same chords in 1.verse ,
listen for the rhythm)
It's alright ,we'll stay friends
Trustin' in my confidence
And let's say it's just alright
I won't have no sleep tonight

repeat CHORUS


SOLO
F5 G5 Em
E||----------------------------------|--------------------------------|
B||----------------------------------|--------------------------------|
G||----------------9--10^12--10p9h10-|---------------7-9^10-9h10p9p7-9|
D||--7--9--9^10--7-------------------|--5-7-7/9^10-5------------------|
A||7---------------------------------|5-------------------------------|
E||----------------------------------|--------------------------------|



C5 D5 E5 C5 A5 A5
E--------------------------------------|----------------------------||
B--------------------a.h---------------|----------------------------||
G-----------------5--7^9---19p17-------|----------------------------||
D---3--5--5/7--3-------------------15--|-----14--14h15p14--9^10--7--||
A-3------------------------------------|-14-------------------------||
E--------------------------------------|----------------------------||

F5 G5 A5 (F5) G5
With my heart, with my soul
F5 C5 Bb5 G5
Some guys cry you bought and sold
F5 G5 A5 (F5) G5
They've been strong , young and bold
F5 E5 G5
And they say , play this song again
repeat CHORUS and fade out

this file s created partially with Bucket'o Tab ,
and arranged with MS Word by DENIZ BALKAN.....

please mail me for any corrections ...




Ваше мнение



Капча