Hed Pe
Waiting to Die
Broke
Tuning Drop D
Intro/Verse (with drums)
slight distortion
E-------------------------
B------------------------7
G-------------3---6-5-----
D--------7-7--------------
A---5-5-------------------
D-------------------------
Pre chorus
Heavy distortion
“everybody dies, everybody dies….”
E------------------------
B------------------------
G------------------------
D---3-3--6-6--6--3-6-2---
A---3-3--6-6--2--3-6-2---
D---3-3--6-6--2--3-6-2--
Chorus
Mild distortion
“there is nothing wrong with me….”
E----------------------
B----------------------
G----------------------
D---0-0-6-7---3-3-6-2--
A---0-0-6-7---3-3-6-2--
D---0-0-6-7---3-3-6-2--
Bridge
Geetar 1
E--------------------
B------9-10-----9----
G---7-------10----8--
D--------------------
A--------------------
D--------------------
Geetar 2
E-------------------
B-------------------
G-------------------
D-------------------
A-------------------
D---0-0-0-12-X3 then D---0-6 on last beat
Little turntable bit then this
Fill 1
E----------------------
B----------------------
G----------------------
D----------------------
A----------------------
D---0-0-6-7-0-0-3-0-1-0
^ --palm mute---------^
then Fill 2
E------------------------
B------------------------
G------------------------
D---0-0-6-7-0-0-3-0-1-0--
A---0-0-6-7-0-0-3-0-1-0--
D---0-0-6-7-0-0-3-0-1-0--
Ending
E-------------------
B-------------------
G-------------------
D---6---0----6---0--
A---6---0----6---0--
D---6---0----6---0--
Hold first chord for a while then stop second one dead.
Song order
Intro/verse X12
Pre chorus X4
Chorus X6
Verse however many times- just listen to the song
Pre chorus
Chorus
Bridge
Turntable bit
Fill 1
Fill 2
Chorus
Geetar part 2 of bridge
Ending





Ваше мнение



Капча