Band: (Hed)pe
Song: Tired Of Sleep
Album: (Hed)pe
Tabbed By: Pauly Del Mar ([email protected])
Standard Tuning
INTRO/VERSE/OUTRO
*For this riff you have to play Part A once then Part B three times.
Part A
G|---------------------4----------------------|
D|------------4-------------------------------|
A|---2-------------------------3--------------|
E|---------------------------------------------|
Part B
G|--------------------------------------------|
D|------------4------------------------------|
A|---2-----------------2-------3------------|
E|---------------------------------------------|
CHORUS~~~tabbed by Matt Streit
G|----------------------------------------------
D|----------------------------------------------
A|--8----7---------8----7---------8----7--8---11
E|------------7--------------7------------------
*** If anyone knows any hardcore songs that they would like to see tabbed e-mail me ***





Ваше мнение



Капча