#----------------------------------PLEASE NOTE--------------------------------#
#This file is the author's own work and represents their interpretation of the#
#song. You may only use this file for private study, scholarship, or research.#
#-----------------------------------------------------------------------------#
#-- File created with Instab - http://www.pconline.com/~smcarey/instab.html --#
#-----------------------------------------------------------------------------#
Author/Artist: pe
Title: Meadow
Album: Broke
Transcribed by: st2012
Email: [email protected]
Play this one in standard tuning.
-7----------------------------------------------------------------------------|
-7----------------------------------------------------------------------------|
-7----------------------------------------------------------------------------|
-5---------5---------7--------------------------------------------------------|
-5-------5---5-----7----------------------------------------------------------|
-7-----3---------5------------------------------------------------------------|
verse
-0--0--0-0-0--0---0--0--0-0-0-------------------------------------------------|
-3--3--3-3-3--3---0--0--0-0-0-------------------------------------------------|
-4--4--4-4-4--4---4--4--4-4-4-------------------------------------------------|
-4--4--4-4-4--4---5--5--5-5-5-------------------------------------------------|
-2--2--2-2-2--2---5--5--5-5-5-------------------------------------------------|
------------------3--3--3-3-3-------------------------------------------------|
guitar 1 after ist verse.
------------------------------------------------------------------------------|
------------------------------------------------------------------------------|
----------6h7p6--/9-------/119------------6h7p6--/9-------7h9p7--6h7p6-------|
-9--------------------------------9-------------------------------------/9----|
------------------------------------------------------------------------------|
------------------------------------------------------------------------------|
------------------------------------------------------------------------------|
------------------------------------------------------------------------------|
-97-7-7h9-7h9------9/119--97--7--7h9-6----6h7--4---------------------------|
------------------------------------------------------------------------------|
------------------------------------------------------------------------------|
------------------------------------------------------------------------------|





Ваше мнение



Капча