(hed)pe, Killing Time.
Tabbed by Brad, [email protected]

BaNd:(hed)p.e.
SoNg:Killing Time
TuNiNg:C# G# E B F# B

C#---------------|
G#---------------|
E--------9-------|
B----------------|(lite dist, play 4x's)
F#--7-7-----7-7--|
B----------------|
C#------------------------------------------|
G#------------------------------------------|
E-------------------------------------------|
B-------------------------------------------|
F#-----------------17/16-16-16-16/15-15-15--|
B--12/--0-0-12-0---15/14-14-14-14/13-13-13--|
(w/dist, play 4x's)
C#----------------------------------|
G#----------------------------------|
E-------------7/6-6-6-6/5-5-5-------|(play another
B-------------5/4-4-4-4/3-3-3-------| 4x's)
F#------7---------------------------|
B---0-0---0-------------------------|
C#--------------|
G#--------------|(clean)
E-12-11-10-9----|
B---------------|
F#--------------|
B---------------|
C#----------------------------------|
G#----------------------------------|
E-----------------------------------|
B-----------------------------------|
F#-3/4-4-4-4/5-5-5-5/6-6-6-6/7-7-7--|(w/dist)
B--1/2-2-2-2/3-3-3-3/4-4-4-4/5-5-5--|
C#-----------------|
G#-----------------|
E--9^-9-9--9^------|(hit this a few times. No dist)
B------------------|
F#-----------------|
B------------------|
(chorus again)
C#----6-----12--------------|
G#--5---------------14--12--|
E---------------------------|(lite dist)
B---------------------------|
F#--------------------------|
B---------------------------|
C#------------------------------|
G#------------------------------|
E-------------7/6-6-6-6/5-5-5---|
B-------------5/4-4-4-4/3-3-3---|(w/dist)
F#------7-----------------------|
B---0-0---0---------------------|
C#----------------|
G#----------------|
E-----------------|
B-----------------|
F#-----7----------|(w/wah,dist)
B--0-0---0--------|
C#-----------------------------|
G#-----------------------------|
E------------------------------|
B------------------------------|
F#-3/4-4--3/4-4--3/4-4--3/4-4--|(wah off)
B--1/2-2--1/2-2--1/2-2--1/2-2--|
C#------------------------------------|
G#------------------------------------|
E-------------------------------------|
B-------------------------------------|
F#-3/4-4-4-4/5-5-5-5/6-6-6-6/7-7-7----|
B--1/2-2-2-2/3-3-3-3/4-4-4-4/5-5-5----|

This is one of my all time favorite songs. It took a long time to figure out the tuning but luckly I got it. COMING SOON......Crazy Legs.





Ваше мнение



Капча