(hed)pe, Jesus (of Nazareth).
Tabbed by Brad, [email protected]

BaNd:(hed)p.e.
SoNg:Jesus (of Nazareth)
TuNiNg:B-E-A-D-G-B
B-14-----------|
G--13-14-------|
D-------16-15--|(clean,piano arranged for guitar)
A--------------|
E--------------|
B--------------|
B---------------------------------|
G---------------------------------|
D---------------------------------|
A---------------------------------|(w/dist)
E---7---6---7---6---7---6---7---9-|
B-0---0---0---0---0---0---0---0---|
B--------------------|
G----------------9-9-|
D----------------7-7-|(w/dist)
A-8-9-11--8-9-11-----|
E-6-7-9---6-7-9------|
B--------------------|
B-------------------------|
G-------------------------|
D-------------------------|
A-------------------------|(w/dist)
E-------------------------|
B-2-2-0-2-5~~2-2-0-2-5~~4-|

Next song....Feel Good





Ваше мнение



Капча