Tabbed by:THE SANDMAN
Email:[email protected]
This is in B like all others or you can play it in D
------------------------------------------------------------------------------
------------------------------------------------------------------------------
----7--7-7--------------------------------------------------------------------
----7--7-7----8-8-8-8--7---7--7-7---5-5-5-5--5--------------------------------
----5--5-5----8-8-8-8--7---7--7-7---5-5-5-5--5--------------------------------
-0------------8-8-8-8--7---7--7-7---5-5-5-5--5--------------------------------
Riff A
-10-------------------------------------------10------------------------------
-----14-------------------------------------------14--------------------------
------------------------------------------------------------------------------
------------------------------------------------------------------------------
------------------------------------------------------------------------------
------------------------------------------------------------------------------
Riff B
------------------------------------------------------------------------------
------------------------------------------------------------------------------
----7-----5------7------------------------------------------------------------
----7-----5------7------------------------------------------------------------
----5-----3------5------------------------------------------------------------
-0-----0------0---------------------------------------------------------------
Riff C





Ваше мнение



Капча