(hed)pe - firsty
cd:(hed)pe
tabbed by DickDieter ([email protected])
Drop D tuning.
I took Paul Del Mar's Main riff. But he didnt tab anything else.
Intro/Verse: (as tabbed by Paul Del Mar)
G|--------------------------------------------|
D|--------------------------------------------|
A|---------2-----2-2-2-2---------2-----1-1-1-1|
D|-0-0-3-3---0-3---------0-0-3-3---0-3--------|
Second Part:
G|-------------------------|
D|-------------------------|
A|-2---2---2---3---3---3---|
D|---0---0---0---0---0---0-|
Chorus:
G|---------|
D|---------|
A|-0-------|
D|----4---2|
Fill 1
G|---------------------------|
D|---------------------------|
A|-----------2--------------1|
D|-0----3---------0----3-----|
Fill 2
G|------------|
D|------------|
A|-3--2--1h2p1|
D|--0--0------|
Intro/Verse X8
Second Part X2
Intro/Verse X2
Second Part X2
Chorus X4
Fill 1 X2
Fill 2 X8
Intro/Verse X4
Chorus X4
Fill 1 X2





Ваше мнение



Капча