HedPe - Darky
Standard tuning

I done f*cked up and setting this song up but hey, beggars can't be choosers right?

Chorus
|-----------------------------------------------20--|Sometimes, rather than 20
|-----19-18----18----18----------19-18----18--------|at the end, he plays a
|-17--------19----18----16----17-------19----18-----|higher note like 24 or so
|---------------------------------------------------|I don't have 24fretts so
|---------------------------------------------------|use your ear.
|---------------------------------------------------|

Bassline(verse)
|------------------|
|------------------|
|------------------|
|-----2-------3----|
|---2---2---3---3--|
|-0-------1--------|

Bridge or is it Chorus part b?
|-----------------------------|
|-----------------------------|
|-7-7-7-7--8----7-7-7-7--8-5--|
|-7-7-7-7-------7-7-7-7-------|
|-5-5-5-5--6----5-5-5-5--6-3--|
|-----------------------------|


~~~~
|-------|When they're playing chorus b play this note and gradually
|-19u===|lift it with the tremolo bar or whammy pedal
|-------|
|-------|
|-------|
|-------|

DJ part at the very end. While not being all that accurate, it's not like it matters considering
It's a freaking turn table~!
|-------------------19-18---------------------------------------19-18----------18-19-20--|
|-17-17-17-17-17-17-------17-17-17-17-17------17-17-17-17-17-17-------17-17-17-----------|
|----------------------------------------------------------------------------------------|
|----------------------------------------------------------------------------------------|
|----------------------------------------------------------------------------------------|
|----------------------------------------------------------------------------------------|

Tabbed by the Southern Californianer, Mr.Winky whom you can send you regards to at [email protected]





Ваше мнение



Капча