(hed) P.E.
***Track 8 Boom (How You Like Dat?)

Verse, gtr1
(-19-18-------- mess around with volume
(----------16--
(--------------
(--------------
(--------------
(--------------
(--------------

Pre-Chorus, gtr1 gtr2
(----------------------*--------
(----------------------*--------
(----------------------*--------
(-4----------3---------*--------
(-2-----4-5--1-----4-5-*-0------
(----------------------*---4-3--
(----------------------*--------

(-----7-----------------
(-6-7------6-7-----6-7--
(--------7-----7-6------
(-----------------------
(-----------------------
(-----------------------
(-----------------------

Chorus, gtr1 gtr2
(-------------------------------------------------
(-------------------------------------------------
(-------------------------------------------------
(-------------------------------------------------
(-----4-4---------4-4---------4-4---------4-4-----
(---4-----3-3-4-4-----3-3-2-4-----3-3-5-4-----3-3-
(---2---------2-2---------0-2---------3-2---------

Interlude 1, gtr1 gtr2
(-----5-------5---7p5---5--
(---7-------7---------7----
(-7-------7----------------
(--------------------------
(--------------------------
(--------------------------
(--------------------------

(--------------------------
(--------------------------
(--------------------------
(--------------------------
(---11--11-11--9-11--12-11-
(----9---9--9--7--9--10--9-
(--------------------------

Interlude 2/Outro, gtr1 gtr2
(------------------------------
(------------------------------
(------------------------------
(------------------------------
(------------------------------
(---4--x--x-4---x-x-4---x--x-4-
(---2--x--x-2---x-x-2---x--x-2-





Ваше мнение



Капча