Tabbed by:THE SANDMAN
Email:[email protected]
Tuning:C#,G#,C#,F#,Bb,Eb
Intro:
-------------------------
-------------------------
-------------------------
---0-0-9h10-10-10-10-0---
---0-0-9h10-10-10-10-0---
---0-0-9h10-10-10-10-0---
Pre-verse:
---------------
---------------
---------------
---0---0-0-0---
---0---0-0-0---
---0---0-0-0---
Verse:
---------------------------------------
---------------------------------------
---------------------------------------
---1p0-1p0---0-0-0---1p0-1p0---0-0-0---
---1p0-1p0---0-0-0---1p0-1p0---0-0-0---
---1p0-1p0---0-0-0---1p0-1p0---0-0-0---
gtr2:
-----------10-----10-----10---
------------------------------
---7-7-7-7----7-7----7-7------
------------------------------
------------------------------
------------------------------
Chorus:
--------------------------------|---------------------------
--------------------------------|---------------------------
--------------------------------|---------------------------
---0-0-9h10-10-10-10-0--0-1-0---|---0-0-2h3-3-3-0-6p5-5-5---
---0-0-9h10-10-10-10-0--0-1-0---|---0-0-2h3-3-3-0-6p5-5-5---
---0-0-9h10-10-10-10-0--0-1-0---|---0-0-2h3-3-3-0-6p5-5-5---
Bridge: fill:
------------------------|-----------------
------------------------|-----------------
------------------------|-----------------
---5h6-6-6-0--5h6-6-0---|---0-6p5-5-5-5---
---5h6-6-6-0--5h6-6-0---|---0-6p5-5-5-5---
---5h6-6-6-0--5h6-6-0---|---0-6p5-5-5-5---





Ваше мнение



Капча