***Track 4 Bartender

Intro/Verse, gtr1 gtr2
(-------------------------------------------------------------------------
(-------------------------------------------------------------------------
(-12h13p1211-12----11h12p1110-11----10h11p108-8/10-8-------------------
(----------------------------------------------------------11h12p119-11--
(-------------------------------------------------------------------------
(-------------------------------------------------------------------------
(-------------------------------------------------------------------------

(-------------------------------------------------------------------------
(-----------------3-----------------3-------------------3---------------3-
(-----------------5-----------------5-------------------5---------------5-
(-----------------4-----------------4-------------------4---------------4-
(--------------------------------4-------------------2--------------------
(---------------------------------------------------------------------0---
(--------------0----------------------------------------------------------

Bridge, gtr1 gtr2
(------------------------
(------------------------
(------------------------
(------------------------
(------------------------
(---7---7----------------
(-0---0---0-6--6-0--6-0--

Chorus, gtr1 gtr2
(-----------------------------------------
(----------------0------0-----------------
(----------------0------0-----------------
(-5-(strum)-------------------------------
(-5------------------------(now play------
(-3----------5-5----4-4-----play 4 times)-
(------------3-3----2-2-------------------

Outro, gtr1 gtr2
(----------------------------------
(----------------------------------
(----------------------------------
(---21----21----19--19----19----19-
(----------------------------------
(---19----19----17--17----17----17-
(-0----0-----0---------0-----0-----





Ваше мнение



Капча