Intro:
G||--------------------------|--------------------------|
D||--15----------15----------|--18----------16----15----|
A||--------13----------13----|--------16----------------|
E||--------------------------|--------------------------|
2x
G||------------------------|-------------------------| /
D||--11---------11---------|--11---------11----13----| /
A||--------9----------9----|--------9----------------| /
E||------------------------|-------------------------| /

Verse 1:
G||--------------------------|--------------------------|
D||--15----------15----------|--18----------16----15----|
A||--------13----------13----|--------16----------------|
E||--------------------------|--------------------------|
7x
G||------------------------|-------------------------| /
D||--11---------11---------|--11---------11----13----| /
A||--------9----------9----|--------9----------------| /
E||------------------------|-------------------------| /

G||--------------------------|--------------------------|
D||--15----------15----------|--18----------16----15----|
A||--------13----------13----|--------16----------------|
E||--------------------------|--------------------------|
1x
G||--------------------------|--------------------------| /
D||--13----------13----------|--13----------13----------| /
A||--------11----------11----|--------11----------11----| /
E||--------------------------|--------------------------|/

Chorus:
G||----------------------|----------------------|
D||----------------------|--4----4----4----4----|
A||--6----6----6----6----|----------------------|
E||----------------------|----------------------|
2x
G||----------------------|----------------------| /
D||----------------------|--6----6----6----6----| /
A||----------------------|----------------------| /
E||--4----4----4----4----|----------------------|/

Verse 2:
G||--------------------------|--------------------------|
D||--15----------15----------|--18----------16----15----|
A||--------13----------13----|--------16----------------|
E||--------------------------|--------------------------|
3x
G||------------------------|-------------------------| /
D||--11---------11---------|--11---------11----13----| /
A||--------9----------9----|--------9----------------| /
E||------------------------|-------------------------| /

G||--------------------------|--------------------------|
D||--15----------15----------|--18----------16----15----|
A||--------13----------13----|--------16----------------|
E||--------------------------|--------------------------|
1x
G||--------------------------|--------------------------| /
D||--13----------13----------|--13----------13----------| /
A||--------11----------11----|--------11----------11----| /
E||--------------------------|--------------------------|/

Chorus:
G||----------------------|----------------------|
D||----------------------|--4----4----4----4----|
A||--6----6----6----6----|----------------------|
E||----------------------|----------------------|
2x
G||----------------------|----------------------| /
D||----------------------|--6----6----6----6----| /
A||----------------------|----------------------| /
E||--4----4----4----4----|----------------------|/

Interlude:
G||----------------------|----------------------|
D||----------------------|--4----4----4----4----|
A||----------------------|----------------------|
E||--6----6----6----6----|----------------------|
2x
G||----------------------|----------------------| /
D||----------------------|----------------------| /
A||--6----6----6----6----|--6----6----6----6----| /
E||----------------------|----------------------|/

G||----------------------|----------------------|
D||--4----4----4----4----|-4...-----------------|
A||----------------------|----------------------|
E||----------------------|----------------------|

Chorus:
G||----------------------|----------------------|
D||----------------------|--4----4----4----4----|
A||--6----6----6----6----|----------------------|
E||----------------------|----------------------|
8x
G||----------------------|----------------------| /
D||----------------------|--6----6----6----6----| /
A||----------------------|----------------------| /
E||--4----4----4----4----|----------------------|/

Hope you like it...
The chorus has more notes than there are shown on the tab, but they are played
faster so... After the interlude, there is a short period where the guy from
Eskobar sings alone. Just wait until the drums start to fall back in.
You can play the 11th fret of the D on the 16th fret of the E string and so on,
to make it easier playing.
Comments or questions on this tab: mail me at [email protected]

Daan




Ваше мнение



Капча