INTRO: Dm C/D Bb/D C/D (repeat)
Dm Bb
I've been lonely
F C
I've been waiting for you
Dm Bb F C
I'm pretending and that's all I can do
Dm Bb
The love I'm sending
F C Bb
Ain't making it through to your heart
D5 Bb5 F5 C5
You've been hiding, never letting it show
D5 Bb5 F5 C5
Always trying to keep it under control
D5 Bb5 F5
You got it down and you're well
C5 Bb5
On the way to the top
C
But there's something that you forgot
F
What about love
Bb C
Don't you want someone to care about you
F
What about love
Bb C
Don't let it slip away
F
What about love
Bb C
I only want to share it with you
Bb
You might need it someday
(VERSE)
(CHORUS)
Guitar solo:
~~~~~~~~~ ~~~~~~
E-----------------------------------------15-------------------------------------
B---13--13--13----------------13-13-------13-13--------13---15---(15)-13--------
G-------------------------------------------------------------12-----------------
D--------------------------------------------------------------------------------
A--------------------------------------------------------------------------------
E--------------------------------------------------------------------------------
up ?
E--------------------------------------------------------------------------------
B--------------------------------------------------------------------------------
G---10---10/12---(12)------5----7-/-9--------(9)---7----9---7--5---3----------
D---------------------------5----------------------------------------------------
A--------------------------------------------------------------------------------
E--------------------------------------------------------------------------------
slide ~~~~~~~~~
E-------------------------------------------------------------------12--10--------
B-----6----6--8---10-----11-----------------11--10----------------------13-----10-
G-------------------------------------------9-----------12--10--------------------
D-----3----3--5---7-------8----------10-------------------------------------------
A---------------------------------------------------------------------------------
E---------------------------------------------------------------------------------
up 1 up 1
E--------------------------------10------------------------------------
B---13---13--------(13)--10------13-10---------------------------------
G--------------------------------------------12----(12)-10-------------
D--------------------------------------------------------------12------
A--------------------------------------------------------------12------
E--------------------------------------------------------------12------
E--------------------------12-------12----15------------------------------
B-----------13------13--------13------------------------------------------
G------12------12---------------------------------------------------------
D--14---------------------------------------------------------------------
A--14---------------------------------------------------------------------
E--14---------------------------------------------------------------------
OUTRO: G/D C/D D
C/D: 10x1098x
Bb/D: 10x81011x
G/D: xx0433




Ваше мнение



Капча