y Michael J. Hoffman
Section 1
E------------------------
B--------3-1-----------
G----2/4---2-0---------
D------------------------
A------------------------
E------------------------
^ ^
Section 2
E------------------------------------------------------------------------
B------------3p1p0---1-----------------------------------3p1p0---1-------
G------------------2---2-------0------4---5---0h2-(2)(2)-------2---2-----
D--------------------------2/4--------4---5---0h2-(2)(2)-----------------
A--------0-0---------0---0--------0-0---0----------0--0----------0---0---
E------------------------------------------------------------------------
^ ^ ^ ^ ^ ^ ^ ^ ^ ^ ^ ^ ^
Section 3
rake
E------------------------------------------------------------------------
B------------------------------------------------0-----------------------
G------------0----2-----2--1---2/4---2---0h1--------2p0------------------
D--------2/4------2----2-------------------------0-----------------------
A--------------0--3---3----2---3/5---4---2(2)----------------------------
E----------------------------0-----0---0------0--3-----------------------
^ ^ ^ ^ ^ ^ ^ ^
Section 4 (Just like Section 2 except add 'A' on the first two notes)
E------------------------------------------------------------------------
B------------3p1p0---1-----------------------------------3p1p0---1-------
G--------2-2-------2---2-------0------4---5---0h2-(2)(2)-------2---2-----
D--------------------------2/4--------4---5---0h2-(2)(2)-----------------
A--------0-0---------0---0--------0-0---0----------0--0----------0---0---
E------------------------------------------------------------------------
^ ^ ^ ^ ^ ^ ^ ^ ^ ^ ^ ^ ^
Section 5

E------------------------------------5-----------------------------------
B------------------------3-----5p3---3---0---------------------------
G------------0-----4-----4---4-----4-----0---------------------------
D--------2/4---------4-------------------0---------------------------
A--------------0-0-0---0---0---------0-----------------------------------
E------------------------------------------------------------------------
^ ^ ^ ^ ^ ^
Section 6 (Same as Section 2)
E------------------------------------------------------------------------
B------------3p1p0---1-----------------------------------3p1p0---1-------
G------------------2---2-------0------4---5---0h2-(2)(2)-------2---2-----
D--------------------------2/4--------4---5---0h2-(2)(2)-----------------
A--------0-0---------0---0--------0-0---0----------0--0----------0---0---
E------------------------------------------------------------------------
^ ^ ^ ^ ^ ^ ^ ^ ^ ^ ^ ^ ^
Section 7
E------------------------------------------------------------------------
B------------------------------------------------------------------------
G------------0-----------------------------------------------------------
D--------2/4-----0-----4-----2-------------------------------------------
A--------------0-----5-----3---------------------------------------------
E------------------5-----3-----------------------------------------------
^ ^ ^ ^
Section 8

E--------------------------0-------------------------------------0-------
B------3p1p0---1-------------3-1-0---------3p1p0---1-----------0---0-----
G------------2---2-----------------2-0-----------2---2---0h1-1---1---1---
D--------------------0---0-------------------------------------0---0-----
A--0-0---------0---0-----------------------------------------2-------2---
E----------------------3---------------2-2---------2---2---0-------------
^ ^ ^ ^ ^ Free Time-->
Section 9
E---------------------------------
B-----6---5h6p5p0---5-------------
G-----------------5---7-5-4-------
D-----0---------------------6-----
A---------------------------------
E-----------------------------0---
Note 1: Use the chord shown below. Your pinky belongs on the first string
at the 5th fret, but you should move it over to the second string
5th fret for the pull-off, then place it on the first string for
the chord that follows.
E---5-- pinky
B---3-- index
G---4-- ring
D---4-- middle
A---0--
E------
Mote 2: Use the chord shown below. Again, you'll need your pinky to pull off
from the third fret on the second string, but if your hand is in this
basic position it will make things easier.
E------
B---1-- index
G---2-- ring
D------
A------
E---2-- middle




Ваше мнение



Капча