Intro: Gb Ab Ab Bbm
Guitar riff:
e----------------------------------------------------------------------------
B--11--11---9--9---11--11----------9--9--9--9--9--11--9----------------------
G------------------------------8---10---------------------------10-----------
D----------------------------------------------------------------------------
A----------------------------------------------------------------------------
E----------------------------------------------------------------------------
then
e-------------------------------------
B-------------------------------------
G-------------------------------------
D----6----6---6----6------8-----------
A----6----6---6----6------8----------- Then Ab Gb Cb Cb Db
E----4----4----4---4------6-----------
Db5
Hey baby, I'm talking to you
Gb5 Cb5
Stop yourself and listen
Db5
Some things you can never choose
Cb5
Even if you try, yeah
Db5
You're hangin your head again
Gb5 Cb5
Cause somebody won't let you in
Db5
One chance, one love
Gb5
Your chance to let me know
Gb Ab
We can't go on
Bbm
Just running away
Gb
If we stay any longer
Ab Bbm
We will surely never get away
Ab Bbm
Anything you want...we can make it happen
Gb
Stand up and turn around
Ab
Never let them shoot us down
Bbm Ab Bbm
Never, never
Ab Bbm Ab Gb
Never, Never run away
(VERSE)
(CHORUS)
(VERSE 1)
We can't go on
Just running away
If we stay any longer
We will surely never get away
OO OO Never
OO OO Never
We can't go on, Never
We can't go on, Never
(repeat)




Ваше мнение



Капча